# 0 1 2 3 4 5 6 7 8 9 A B C D E F G H I J K L M N O P Q R S T U V W X Y Z
Ƨ А Б В Г Д Е Ж З И І Й К Л М Н О П Р С Т У Ф Х Ц Ч Ш Щ Ы Э Ю Я
Войти:  Facebook Google Twitter Vk Yandex Mail.ru



Joy Crookes - Dont Let Me Down - аккорды

 » 
 » 
Dont Let Me Down
Нотный режим - новая уникальная возможность на нашем сайте!
Тональность: 
0
Масштаб: 
100%
Прокрутка: 
0
Проще!
Аппликатуры
Нотный режим
Dont Let Me Down
Joy Crookes
[ Предположительная тональность: B ]

Joy Crookes - Don't Let Me Down (Demo)


Chords:

     B7M         B#m7       Cm7         B7
e|-----0----------4----------2----------0---------|
B|-----2----------5----------3----------0---------|
G|-----1----------4----------2----------1---------|
D|-----2----------6----------4----------0---------|
A|-----0----------4----------2----------2---------|
E|-----0----------4----------2----------0---------|




(pick chords with bass line going along E and B string as below)

   (B7M  )        (B#m7)        (Cm7)         (B7)
e|--------------------------------------------------------------------|
B|--------2--------------5------------3-------------------------------|
G|-----1--1-----------4--4----------2---2-----------1-----------------|
D|---2----2---------6----6--------4-------4-------0-------------------|
A|-0-----------0--4----------3--2---------------2---------------------|
E|--------------------------------------------0---------0-------------|


[Verse 1]
(picking same as intro)

B7M       B#m7
Wandering eyes
      Cm7       B7
I see them all the time
         B7M          B#m7
While we roam east to west
         Cm7                B7
Just for you in my Sunday's best

         B7M             B#m7
Do those looks mean much more?
           Cm7         B7
Cos you're so far from home
    B7M           B#m7
The crack in your eye
    Cm7             B7
Invited all of this light


[Pre-chorus]

  Cm7                                               B7
I know you're the type to tip waiters with all your emotions
                B#m7
But don't you forget
                      Cm7  B7
Saw you crawl into my bed


[Chorus]
(picking same as intro)

             B7M    B#m7
Don't let me down
             Cm7  B7
Don't let me down
             B7M    B#m7
Don't let me down
             Cm7  B7
Don't let me down


[Verse 2]

B7M     B#m7
Rolling up
       Cm7           B7
Cos my high is never enough
       B7M                 B#m7
In the night I set my legs open
          Cm7                  B7
Made sure all my defences were broken

           B7M  
Now you're fleeting
         B#m7
Like the smoke
       Cm7                B7
Or our summers on Spanish coasts
         B7M         B#m7
I had to light a cigarette
        Cm7               B7
Just to get you off of my chest


[Pre-chorus]

  Cm7                                               B7
I know you're the type to tip waiters with all your emotions
                B#m7
But don't you forget
                      Cm7  B7
Saw you crawl into my bed


[Chorus]

             B7M    B#m7
Don't let me down
             Cm7  B7
Don't let me down
             B7M    B#m7
Don't let me down
             Cm7  B7
Don't let me down




B7M             B#m7    Cm7
Oh, please don't let me down
    B7
Oh, please don't

Please don't
B7M  
Please don't
       B#m7
Let me down
      Cm7  B7
I said

Joy Crookes - Dont Let Me Down - ноты

(включить)
Другие композиции этого автора:
https://primanota.ru/joy-crookes/dont-let-me-down.htm

Привет, гитарист!

Тебе подарок от сайта PrimaNota.ru

Забрать подарок
ВАМ ПОДАРКИ ОТ ПРОЕКТА
"ГИТАРНАЯ РЕВОЛЮЦИЯ"