» 
 » 
Honey



Johnny Balik - Honey - аккорды

Чайковский в рок-аранжировке! Очень необычно, послушай!
Тональность: 
0
Масштаб: 
100%
Прокрутка: 
0
Проще!
Аппликатуры
Нотный режим
Honey
Johnny Balik
[ Предположительная тональность: C ]

e|---------7----|-------------7----|-----------7--9----|----------------------|
B|---------7----|-------------9----|-----------9--10---|----------------------|
G|---------7----|-------------7----|-----------7--9----|----------------------|
D|---------7----|-------------9----|-----------9--11---|--9---11-9------------|
A|---------9----|--5-6-7------7----|--8-9------7--9----|------------12-9------|
E|--7------7----|------------------|-------------------|----------------------|

e|---------7----|-------------7----|-----------7--9----|----------------------|
B|---------7----|-------------9----|-----------9--10---|----------------------|
G|---------7----|-------------7----|-----------7--9----|---------9------------|
D|---------7----|-------------9----|-----------9--11---|--9---11----11-9------|
A|---------9----|--5-6-7------7----|--8-9------7--9----|-----------------12-9-|
E|--7------7----|------------------|-------------------|----------------------|

[Verse 1]
 Gm7         F7                C#m7
Tell me everything and hold no lies
 Gm7         F7               C#m7
Say you're waiting for better skies
 Gm7                F7            C#m7
When you're mad as hell and you realize
 Gm7           F7              C#m7
All the little things which we rely

[Pre-Chorus]
Gm7    F7
Hoping, praying
C#m7
Working every day to get my mind right
Gm7     F7    C#m7
Wasting my own time
                           Gm7
Where were you when I was lost
F7          C#m7   G7
So far from trying

[Chorus]
        B7M                    F#m7
Oh, but honey don't taste like summer no more
Gm7                          C#m7       F7
Stick around now, I miss you every night
B7M                       F#m7
We could pass time moving left and right
Gm7               F    F7  C#m7
Think about when life goes by
                  Fm7
Oh, within a day

[Verse 2]
Gm7         F7                C#m7
Tell me everything and hold no lies
 Gm7         F7               C#m7
Say you're waiting for better skies
 Gm7                F7            C#m7
When you're mad as hell and you realize
 Gm7           F7              C#m7
All the little things which we rely

Oh, I've been

[Pre-Chorus]
Gm7    F7
Hoping, praying
C#m7
Working every day to get my mind right
Gm7     F7    C#m7
Wasting my own time
                           Gm7
Where were you when I was lost
F7          C#m7   G7
So far from trying

[Chorus]
 B7M                    F#m7
Oh, but honey don't taste like summer no more
Gm7                          C#m7       F7
Stick around now, I miss you every night
B7M                       F#m7
We could pass time moving left and right
Gm7               F    F7  C#m7
Think about when life goes by
Oh, within a day

[Bridge]
 B7M                   F#m7
Honey don't taste like summer no more
 Gm7                    C#m7   F7
Oh, it don't taste like summer no more
 B7M                    F#m7
Oh, it don't taste like summer no more
 Gm7             C#m7    F7
Summer no more, summer no more (x2)

[Chorus]
 B7M                    F#m7
Oh, but honey don't taste like summer no more
Gm7                          C#m7       F7
Stick around now, I miss you every night
B7M                       F#m7
We could pass time moving left and right
Gm7               F    F7  C#m7
Think about when life goes by
N.C.
Oh, within a day x2


 B7M                   F#m7
Honey don't taste like summer no more
 Gm7                    C#m7   F7
Oh, it don't taste like summer no more
 B7M                    F#m7
Oh, it don't taste like summer no more
 Gm7             C#m7    F7
Summer no more, summer no more (x2)

Johnny Balik - Honey - ноты

(включить)
https://primanota.ru/johnny-balik/honey.htm