Войти:  Facebook Google Twitter Vk Yandex Mail.ru
PrimaNota.ru - самый крупный в мире бесплатный архив песенных текстов, аккордов, табулатур и нот


Jerry Goldsmith - Universal Studios Fanfare - табы

Печатать
Лучшая metal-группа Петербурга

Universal Studios Fanfare

  • аккорды, текст

-------------------------------------------------------------------------------
                  Universal Studios Fanfare - Jerry Goldsmith
-------------------------------------------------------------------------------
Tabbed by: Me!
E-mail: jamesaguilar21@gmail.com

Here's a fun little shindig; the Universal Studios song! I'm sure many of you know this little song by heart,
as it plays at the start of every Universal film. I decided to tab it out for you all since I just recently
learned it myself; it's fairly simple and super fun to play as it is recognized by virtually everyone. Have fun
and enjoy! 

Tuning: E Flat (Eb-Ab-Db-Gb-Bb-Eb)

e|----------7--------7-7----------------7--------7-7-------------------------|
B|---5-5-------5---5-------------5-5-------5---5-----------------------------|
G|-4-------------4-------------4-------------4-------------------------------|
D|---------------------------------------------------------------------------|
A|---------------------------------------------------------------------------|
E|-----------------------0-0-------------------------0-0---------------------|

e|-----5---3-----------5--7-------------7-7----------------------------------|
B|---5---------7----5-------5-5---5---5--------------------------------------|
G|-4--------------------------------4----------------------------------------|
D|-------------0----------------------------------2--------------------------|
A|-----3------------------------------------------2--------------------------|
E|------------------------0-----------------------0--------------------------|


************************************

| /   slide up
| \   slide down
| h   hammer-on
| p   pull-off
| ~   vibrato
| +   harmonic
| x   Mute note
| b   Bend
| pb  Pre-bend
| br  Bend release
| pbr Pre-bend release
| brb Bend release bend

************************************   
https://primanota.ru/jerry-goldsmith/universal-studios-fanfare-chords.htm

Привет, гитарист!

Тебе подарок от сайта PrimaNota.ru

Забрать подарок
ВАМ ПОДАРКИ ОТ ПРОЕКТА
"ГИТАРНАЯ РЕВОЛЮЦИЯ"