PrimaNota.ru - самый крупный в мире бесплатный архив песенных текстов, аккордов, табулатур и нот


Iq - Frequency - таба, видео

Регистрация Запомнить меня
Войти через:  Facebook Google Twitter Vk Yandex Mail.ru

Iq - Frequency - таба, видео

Печатать
Просмотров: 279
Лучшая metal-группа Петербурга
Авторы: Martin Orford, Andy Edwards, Mark Westworth, Michael Holmes, Peter Nicholls, John Jowitt

-----------------------------------------------------------------------------
                                          Artist - IQ
                                         *************
                                       Song - Frequency 
                                      ******************
                                      Album - Frequency 
                                     *******************
                                     Tabbed By - Ayreon77
                                    **********************
-----------------------------------------------------------------------------
Tuning = Standard

Morse code
Sound Effects

-------------------------------------------
00:29
INTRO
******
  Em                    G                     C
e|---------------------|---------------------|---------------------------|
B|---------------------|---------------------|---------------------------|
G|---------------------|---------------------|---------------------------|
D|---------------------|---------------------|---------------------------|
A|-2-2-2--2-2-2--2-2-2-|-5-5-5--5-5-5--5-5-5-|-10-10-10--10-10-10--10-10-|
E|-0-0-0--0-0-0--0-0-0-|-3-3-3--3-3-3--3-3-3-|-8--8--8---8--8--8---8--8--|

  Bb
e|-----------------------|
B|-----------------------|
G|-----------------------|
D|-----------------------|
A|-8-8-8--8-8-8--8-7-6-5-|
E|-6-6-6--6-6-6--6-5-4-3-|

  Em                    G                     C
e|---------------------|---------------------|---------------------------|
B|---------------------|---------------------|---------------------------|
G|---------------------|---------------------|---------------------------|
D|---------------------|---------------------|---------------------------|
A|-2-2-2--2-2-2--2-2-2-|-5-5-5--5-5-5--5-5-5-|-10-10-10--10-10-10--10-10-|
E|-0-0-0--0-0-0--0-0-0-|-3-3-3--3-3-3--3-3-3-|-8--8--8---8--8--8---8--8--|

  Bb
e|-----------------------------------|--------------------------|
B|-----------------------------------|--scratch-----------------|
G|-----------------------------------|--------------------------|
D|-----------------------------loud--|----pleck-across----------|
A|-8-8-8--8-8-8--8-8-8--8-8-8--8-8-8-|--------------------------|
E|-6-6-6--6-6-6--6-6-6--6-6-6--6-6-6-|------strings-up-and-down-|


-------------------------------------------
Chords - Em G C Bb                        hold hold hold
01:00                 hold                bend bend bend
SOLO                  bend            b   |  |  |  |  |  rb
e|-------------|--b---|--|--rbp----|-10--10-10-10-10-10-10--|
B|-b----brp----|-10--10-10-10--8---|------------------------|
G|-7----7--5---|-----------------9-|------------------------|
D|-----------9-|-------------------|------------------------|
A|-------------|-------------------|------------------------|
E|-------------|-------------------|------------------------|

  Fast part       h  h  p  p                
e|-------h--h---10-11-13-11-10---p--p------|
B|-11--10-11-13----------------13-11-10----|
G|--------------------------------------10-|
D|-----------------------------------------|
A|-----------------------------------------|
E|-----------------------------------------|

01:13                        s              s           s        
e|-12-12-12-12-12-12-12-12-12\19-19-19-19-19\17-17-17-17\19-19-19-12-12-12-12-|
B|----------------------------------------------------------------------------|
G|----------------------------------------------------------------------------|
D|----------------------------------------------------------------------------|
A|----------------------------------------------------------------------------|
E|----------------------------------------------------------------------------|


e|-12-15-15-15-15-15-15-14-14-15-15-12-12-------------------s-|
B|----------------------------------------12-12-12-12-12-12-\-|
G|------------------------------------------------------------|
D|------------------------------------------------------------|
A|------------------------------------------------------------|
E|------------------------------------------------------------|

01:20                                              s
e|-------12-15-12----------12-15-12----------12-15-\-|
B|-12-13----------13----13----------13----13---------|
G|-------------------12----------------12------------|
D|---------------------------------------------------|
A|---------------------------------------------------|
E|---------------------------------------------------|

                                                                                  s
e|----10-13-10----------10-13-10----------10-13-10----------10-13-10----|----10-13\-|
B|-11----------11----11----------11----11----------11----11----------11-|-11--------|
G|----------------10----------------10----------------10----------------|-----------|
D|----------------------------------------------------------------------|-----------|
A|----------------------------------------------------------------------|-----------|
E|----------------------------------------------------------------------|-----------|


01:30
  Em
e|---------------------|
B|---------------------|
G|---------------------|
D|---------------------|
A|-2-2-2--2-2-2--2-2-2-|
E|-0-0-0--0-0-0--0-0-0-|X4

  Bm
e|---------------------|
B|---------------------|
G|---------------------|
D|-4-4-4--4-4-4--4-4-4-|
A|-2-2-2--2-2-2--2-2-2-|
E|---------------------|X4


-------------------------------------------
01:57
KEYBOARD - Em A
02:03
Vol = *
    *
e|---br---|-----|
B|-19-----|--rb-|
G|-----16-|-14--|
D|--------|-----|
A|--------|-----|
E|--------|-----|


-------------------------------------------
VERSE 1
********
Em           A    
Before I was undiscovered
Em           A
When I was invincible
Em           A
Nobody could kill the silence
Em           A           Em     A  Em A
And probably no one will again

02:24
e|-------------*---*-|
B|-------rb---15--12-|
G|-b----11-----------|
D|-7-----------------|
A|-------------------|
E|-------------------|


-------------------------------------------
VERSE 2
********
Em             A
The future was unrelated
Em           A    
Alternatives all pursued
Em                 A
The lives that got separated
Em               A
When others were split in two

02:43
e|--*-|
B|-17-|
G|----|
D|----|
A|----|
E|----|


-------------------------------------------
CHORUS
*******
      C          D             Bm
And I don’t remember now where I’m,
   C
Supposed to be
           D
I slide between the waves,
    Bm       C         Em    A Em A
And ride the frequency alone

02:57
    *
e|---s--------br-|
B|-17\19----15---|
G|---------------|
D|---------------|
A|---------------|
E|---------------|


-------------------------------------------
VERSE 3
********
Em              A
They might have agreed to listen
Em          A
If I didn't loose control
Em           A
But I was as lost as they were
Em            A           
As still as a heart grown cold


-------------------------------------------
CHORUS
*******
      C     D            Bm
And I don’t recall how I became
          C
The one I used to be
            D               Bm
I heard the strings of life begin
           C              Em    A Em A
Within the frequency that night
03:27
e|--------b---------rb-|
B|--*----15-~~~~~~~~---|
G|-12------------------|
D|---------------------|
A|---------------------|
E|---------------------|

  Em     A           Em
I walked through the walls


-------------------------------------------
03:46
Heavy Chords
  Bm             Bm
e|------------------|
B|------------------|
G|-4--------------4-|
D|-4--------------4-|
A|-2--------------2-|
E|------------------|


-------------------------------------------
03:55
SOLO
*****
e|----------h----------h------|---p--p------|-----------------------|----------|----------|
B|-12~~~--12-13-12---12-13-15-|-15-13-12----|----12-13--12----12----|----------|---h------|
G|----------------------------|----------14-|-14-----------14-------|----11-12-|-12-14-11-|
D|----------------------------|-------------|--------------------14-|-14-------|----------|
A|----------------------------|-------------|-----------------------|----------|----------|
E|----------------------------|-------------|-----------------------|----------|----------|X2


-------------------------------------------
BRIDGE
*******
Em      Am     D                  G
Hold on tight, lives are going to change
    C           F          Bb             Bm     Am
The king of his kingdom is surely falling out of range
Em     Am           D       G
Stay a while in the present tense
C           F            Bb        Bm    Em
All in good time, You’ll find your inner sense


-------------------------------------------
04:52
SOLO
*****
e|----------h----------h------|---p--p------|-----------------------|----------|--------------|
B|-12~~~--12-13-12---12-13-15-|-15-13-12----|----12-13--12----12----|----------|---h--------s-|
G|----------------------------|----------14-|-14-----------14-------|----11-12-|-12-14-11-11\-|
D|----------------------------|-------------|--------------------14-|-14-------|--------------|
A|----------------------------|-------------|-----------------------|----------|--------------|
E|----------------------------|-------------|-----------------------|----------|--------------|

05:08   hold
        bend
e|--b--|--|--|r----------------------|-----------b-|-12---p--p------|
B|-15-15-15-15--12----12----12-13-12-|-12-13-15-15-|----15-13-12----|
G|-----------------14----14----------|-------------|-------------14-|
D|-----------------------------------|-------------|----------------|
A|-----------------------------------|-------------|----------------|
E|-----------------------------------|-------------|----------------|


e|-12--------12--------------------------|----------|---------------|
B|----12--------12-----12-13-12----12----|----------|--b---brp------|
G|-------14--------14-----------14-------|----11-12-|-14--14--12-11-|
D|------------------------------------14-|-14-------|---------------|
A|---------------------------------------|----------|---------------|
E|---------------------------------------|----------|---------------|


-------------------------------------------
BRIDGE
*******
Em       Am    D                    G      C
Now as a final fire climbs into the single spire
               F        Bb       Bm
High above the wireless world it hovers
Em        Am        D                    G      C
So as the brightest child sinks into the safest arms
                  F         Bb     Bm
Tight against the bomb that hangs above us


-------------------------------------------
06:05
SYNTH
******
-------------------------------------------
06:16
CHORUS
*******
           Em
I could of stayed if you were mine
                                      C
If time remained the reasons would of rhymed
      D              Bm        C
But I don’t remember now where I should be
        D               Bm      C
Find me where you don’t believe me
          D            Bm        C
There’s a warning in between the memories
        D                   Bm      Em
Can you hear me through the whitest noise.


MORSE CODE
***********

-------------------------------------------
06:59
Grungy Guitar - This is not wrote out as the right amount, you will have to kinda figure that out
e|---------------------------------------------------------------------------|
B|---------------------------------------------------------------------------|
G|---------------------------------------------------------------------------|
D|---------------------------------------------------------------------------|
A|---------------------------------------------------------------------------|
E|-12-12-12-12-12-12-12-11-11-11-11-11-11-11-10-10-10-10-10-10-9-9-9-9-9-9-9-|


e|-----------------------------------------------------------------------|
B|-----------------------------------------------------------------------|
G|-----------------------------------------------------------------------|
D|-----------------------------------------------------------------------|
A|-----------------------------------------------------------------------|
E|-9-9-9-9-9-9-8-8-8-8-8-8-7-7-7-7-7-7-7-7-7-6-6-6-6-6-6-5-5-5-5-5-5-5-5-|

I slide between the waves,

And ride the frequency

-------------------------------------------
07:14
SOLO
*****
        hold
        bend
e|--b--|--|--|r----------------------|----------12-|---p--p------|
B|-15-15-15-15--12----12----12-13-12-|-12-13-15----|-15-13-12----|
G|-----------------14----14----------|-------------|----------14-|
D|-----------------------------------|-------------|-------------|
A|-----------------------------------|-------------|-------------|
E|-----------------------------------|-------------|-------------|


e|-12--------12--------------------------|----------|------------------|
B|----12--------12-----12-13-12----12----|----------|--b----p--s-----s-|
G|-------14--------14-----------14-------|----11-12-|-14--14-12\11-11\-|
D|------------------------------------14-|-14-------|------------------|
A|---------------------------------------|----------|------------------|
E|---------------------------------------|----------|------------------|

07:30   tricky part
    b         h  p  p                                   h  h
e|-15-15-14-14-15-14-12---h--p--p--------------h--h---12-14-15-14-|
B|----------------------14-15-14-12---h--h---12-14-15-------------|
G|----------------------------------11-12-14----------------------|
D|----------------------------------------------------------------|
A|----------------------------------------------------------------|
E|----------------------------------------------------------------|

07:34
     p
e|-15-14----12-------------------------|-----------------------|
B|-------15----12-15-12----------------|----12-13--12----12----|
G|----------------------14-12-11-------|-14-----------14-------|
D|----------------------------------14-|--------------------14-|
A|-------------------------------------|-----------------------|
E|-------------------------------------|-----------------------|


e|-------------------------|--s-----brp-------------|
B|----------s----------s---|-8\13--15--13-12-~~~~~~-|
G|----11-12-\---s---11-\---|------------------------|
D|-14---------5-/--------4-|------------------------|
A|-------------------------|------------------------|
E|-------------------------|------------------------|


-------------------------------------------
OUTRO
******
Light and sound
Conceal me
They shield me
From danger signs
Make me understand it
How can I quit these power lines.


 Play this with the OUTRO
  Em                    G                     C
e|---------------------|---------------------|---------------------------|
B|---------------------|---------------------|---------------------------|
G|---------------------|---------------------|---------------------------|
D|---------------------|---------------------|---------------------------|
A|-2-2-2--2-2-2--2-2-2-|-5-5-5--5-5-5--5-5-5-|-10-10-10--10-10-10--10-10-|
E|-0-0-0--0-0-0--0-0-0-|-3-3-3--3-3-3--3-3-3-|-8--8--8---8--8--8---8--8--|

  Bb
e|-----------------------|
B|-----------------------|
G|-----------------------|
D|-----------------------|
A|-8-8-8--8-8-8--8-7-6-5-|
E|-6-6-6--6-6-6--6-5-4-3-|

  Em                    G                     C
e|---------------------|---------------------|---------------------------|
B|---------------------|---------------------|---------------------------|
G|---------------------|---------------------|---------------------------|
D|---------------------|---------------------|---------------------------|
A|-2-2-2--2-2-2--2-2-2-|-5-5-5--5-5-5--5-5-5-|-10-10-10--10-10-10--10-10-|
E|-0-0-0--0-0-0--0-0-0-|-3-3-3--3-3-3--3-3-3-|-8--8--8---8--8--8---8--8--|

  Bb
e|-----------------------------------|
B|-----------------------------------|
G|-----------------------------------|
D|-----------------------------loud--|
A|-8-8-8--8-8-8--8-8-8--8-8-8--8-8-8-|
E|-6-6-6--6-6-6--6-6-6--6-6-6--6-6-6-|



ENJOY..........
Добавлено: 06.06.2014
Вам также может быть интересно:
Другие материалы по этой песне:
  • Аккорды и текст

Страница создана 06.06.2014
https://primanota.ru/iq/frequency-chords.htm
Привет, Гость.
Предлагаем пройти революционный курс по гитаре.
Подарок от PrimaNota.Ru, забирай!