Войти:  Facebook Google Twitter Vk Yandex Mail.ru
PrimaNota.ru - самый крупный в мире бесплатный архив песенных текстов, аккордов, табулатур и нот


Into Eternity - Torn - текст песни, табы, видео

Печатать
Лучшая metal-группа Петербурга

Torn

  • аккорды и текст

* tune guitar down 2 stpes to C *


This is an old school song off the first album.This was posted by Tim Roth off his 
website so its right


** This intro is done all with hammerons and pulloffs. I hold the 6th and 4th strings to 
them when I'm playing part A . Both lines are harmonized in 4ths. **

-----------------------------------------------------------------|
-----------------------------------------------------------------|
-----------------------------------------------------------------|
-----------------------------------------------------------------| ( A )
---12--0--8--0--12--0--8--0--12--0--8--0--12--0--8--0------------|
-----------------------------------------------------------------|


--------------------------------------------------------------------------|
--------------------------------------------------------------------------|
--------------------------------------------------------------------------| ( A )
--------------------------------------------------------------------------|
---7---0---8---0---7---0---8---0---7---0---8---0---7---0---8---0----------|
--------------------------------------------------------------------------|

* The lick moves down a string now. I hold the 5th and 3rd strings to mute them as I 
and pull the notes. The two lines are harmonized in 4ths. *

----------------------------------------------------------------|
----------------------------------------------------------------|
----------------------------------------------------------------| ( B )
---12--0--8--0--10--0--7--0--8--0--10--0--8--0--7--0------------|
----------------------------------------------------------------|
----------------------------------------------------------------|


----------------------------------------------------------------|
----------------------------------------------------------------|
----------------------------------------------------------------| ( B )
---12--0--8--0--10--0--7--0--8--0--10--0--8--0--5--0------------|
----------------------------------------------------------------|
----------------------------------------------------------------|


** Here comes the chorus sort of riff. **

" look to the sky....."

-------------------------------------------------------------------|
-------------------------------------------------------------------|
-------------------------------------------------------------------| ( C )
---9-------------9-------------10------------10--------------------|
-------7--7--7------7--7--7-------7--7--7-------7--7--7------------|
-------------------------------------------------------------------|


-------------------------------------------------------------------|
-------------------------------------------------------------------|
-------------------------------------------------------------------| ( C )
---7-------------7-------------5-------------5---------------------|
-------5--5--5------5--5--5------3--3--3------2--2--2--------------|
-------------------------------------------------------------------|


-------------------------------------------------------------------|
-------------------------------------------------------------------|
-------------------------------------------------------------------| ( C )
---9-------------9-------------10------------10--------------------|
-------7--7--7------7--7--7-------7--7--7-------7--7--7------------|
-------------------------------------------------------------------|


--------------------------------------------------------------------|
--------------------------------------------------------------------|
--------------------------------------------------------------------| ( C )
---12-------------12-------------10-------------10------------------|
--------9--9--9--------9--9--9-------9--9--9--------9--9--9---------|
--------------------------------------------------------------------|   
Другие материалы по этой песне:
  • Аккорды и текст

https://primanota.ru/into-eternity/torn-chords.htm

Привет, гитарист!

Тебе подарок от сайта PrimaNota.ru

Забрать подарок
ВАМ ПОДАРКИ ОТ ПРОЕКТА
"ГИТАРНАЯ РЕВОЛЮЦИЯ"