Войти:  Facebook Google Twitter Vk Yandex Mail.ru
PrimaNota.ru - самый крупный в мире бесплатный архив песенных текстов, аккордов, табулатур и нот


Into Eternity - Timeless Winter - текст песни, табы, видео

Печатать
Лучшая metal-группа Петербурга

Timeless Winter

  • аккорды и текст
  • gtp-табы

This is the melodic lick taken from Timeless Winter. Tim Roth posted a video on youtube 
how to play this so this is straight from him. Tune two steps down to C

C----18--17--15------------------------------------------------------------|
G-----------------18--17--15---14--15--14----------------------------------|
Eb-------------------------------------------15--14--12--------------------|
Bb--------------------------------------------------------15--14--12--11---|
F--------------------------------------------------------------------------|
C--------------------------------------------------------------------------|


C----13--12--10-----------------------------------------------------|
G-----------------13--12--10---9--10--9-----------------------------|
Eb----------------------------------------10--9--7------------------|
Bb---------------------------------------------------10--9--7--6----|
F-------------------------------------------------------------------|
C-------------------------------------------------------------------|   
https://primanota.ru/into-eternity/timeless-winter-chords.htm

Привет, гитарист!

Тебе подарок от сайта PrimaNota.ru

Забрать подарок
ВАМ ПОДАРКИ ОТ ПРОЕКТА
"ГИТАРНАЯ РЕВОЛЮЦИЯ"