Войти:  Facebook Google Twitter Vk Yandex Mail.ru
PrimaNota.ru - самый крупный в мире бесплатный архив песенных текстов, аккордов, табулатур и нот


Illy - Youngbloods - таба, видео

Печатать
Просмотров: 81
Лучшая metal-группа Петербурга

Youngbloods

  • аккорды и текст

Drop D tuning

These are the riffs that are used in the song

E|------------------------------------------|
B|------------------------------------------|
G|------------------------------------------|
D|---2-2-2-2-2-2-4-6-6-6-6-6-6-6-6-6--------|
A|------------------------------------------|
D|------------------------------------------|

E|-----------------------s14----------------|
B|------------------------------------------|
G|------------------------------------------|
D|---6---9---4---4---1----------------------|
A|---6---9---4---4---1----------------------|
D|---6---9---4---4---1----------------------|

E|------------------------------------------|
B|------------------------------------------|
G|------------------------------------------|
D|----6-6-6-4-4-4-4-4-4-4-4-4-4-4-4-4-------|
A|------------------------------------------|
D|------------------------------------------|

E|------------------------------------------|
B|------------------------------------------|
G|------------------------------------------|
D|----2---2---6---4---4---4---4-------------|
A|----2---2---6---4---4---4---4-------------|
D|----2---2---6---4---4---4---4-------------|

E|------------------------------------------|
B|------------------------------------------|
G|------------------------------------------|
D|---2---2---2---4---6---6---6---6---4------|
A|---2---2---2---4---6---6---6---6---4------|
D|---2---2---2---4---6---6---6---6---4------|

--------------------------------------------------------------------------------------------------------------


[Intro]

E|------------------------------------------|
B|------------------------------------------|
G|------------------------------------------|
D|---2-2-2-2-2-2-4-6-6-6-6-6-6-6-6-6--------|
A|------------------------------------------|
D|------------------------------------------|


[Verse 1]

Now, I would never claim to have the answers
Shit, I failed as many tests as I advanced in
But I rised above
Hear the fuckin' war
Simba to the lion cubs
I'm that Iron Man
Swigin' tiger blood
Beasts repeat 'till the last straws snap
Whatcha' think, a fuckin' fortune just falls in your lap?
Nah
We bring it like Freedom Fighters to the tanks
If they act up we gon' act right back like

E|-----------------------s14----------------|
B|------------------------------------------|
G|------------------------------------------|
D|---6---9---4---4---1----------------------|
A|---6---9---4---4---1----------------------|
D|---6---9---4---4---1----------------------|

Rebels with a cause
Weather in a storm
Devil on the shoulder
Heaven's at the door, so
Knock, knock
My generation's sure
You can judge it by the words or the level of applause

 (Guitar 1)
E|-----------------------s14----------------|
B|------------------------------------------|
G|------------------------------------------|
D|---6---9---4---4---1----------------------|
A|---6---9---4---4---1----------------------|
D|---6---9---4---4---1----------------------|

 (Guitar 2)
E|------------------------------------------|
B|------------------------------------------|
G|------------------------------------------|
D|----6-6-6-4-4-4-4-4-4-4-4-4-4-4-4-4-------|
A|------------------------------------------|
D|------------------------------------------|

I ain't the only one
The real show's to come
We all waitin' for our shot
Loaded guns
Spark a fire in our eyes then we run amuck
There's one love to my fuckin' youngbloods like

[Hook]

E|------------------------------------------|
B|------------------------------------------|
G|------------------------------------------|
D|----2---2---6---4---4---4---4-------------|
A|----2---2---6---4---4---4---4-------------|
D|----2---2---6---4---4---4---4-------------|

Youngbloods, run free forever
Forget the death that's ever nearer
Youngbloods, young hearts alike
Let the fires burn inside your eyes
We won't give up these memories
We won't go near those cemeteries
Youngbloods, young hearts alike
Let the fires burn inside your eyes


[Verse 2]

E|------------------------------------------|
B|------------------------------------------|
G|------------------------------------------|
D|----6-6-6-4-4-4-4-4-4-4-4-4-4-4-4-4-------|
A|------------------------------------------|
D|------------------------------------------|

Yeah, we light it up like a firework in flight
In with the new before the bust
And that bullshit they pushin' you to buy ain't worth the price
So we say, "Fuck you, we doin' this for us!"
Get it done while they "um" and "ah"
("Um" and "ah")
'Till they come apart
This shit's strictly for the young and the young at heart
Who in the building, fuckin' guest list, the cover charge
We doin' it big while we here for the ones that aren't

E|------------------------------------------|
B|------------------------------------------|
G|------------------------------------------|
D|---2---2---2---4---6---6---6---6---4------|
A|---2---2---2---4---6---6---6---6---4------|
D|---2---2---2---4---6---6---6---6---4------|

A lot of people tell you what you're meant to do
But only one can decide on what's best for you: You
Me? I'm just tryin' to get the message through
It goes like, "Save the drama, spend your youth." Truth
To the sky and beyond, with the vow that I'm holding
Young mind with a song
Game-face on to the world cause it only comes once
Love to my fuckin' youngbloods like


[Hook]

E|------------------------------------------|
B|------------------------------------------|
G|------------------------------------------|
D|----2---2---6---4---4---4---4-------------|
A|----2---2---6---4---4---4---4-------------|
D|----2---2---6---4---4---4---4-------------|

Youngbloods, run free forever
Forget the death that's ever nearer
Youngbloods, young hearts alike
Let the fires burn inside your eyes
We won't give up these memories
We won't go near those cemeteries
Youngbloods, young hearts alike
Let the fires burn inside your eyes


[Bridge]

E|------------------------------------------|
B|------------------------------------------|
G|------------------------------------------|
D|---2-2-2-2-2-2-4-6-6-6-6-6-6-6-6-6--------|
A|------------------------------------------|
D|------------------------------------------|

Now let me hear you say
"Woah oh, woah oh, woah oh, oh, oh"
Now let me hear you say-ay
"Woah oh, woah oh, woah oh, oh, oh"
Now let me hear you say
"Woah oh, woah oh, woah oh, oh, oh"
Now, there's nothing but love all my youngbloods like
Four, three, two, go!


[Hook]

E|------------------------------------------|
B|------------------------------------------|
G|------------------------------------------|
D|----2---2---6---4---4---4---4-------------|
A|----2---2---6---4---4---4---4-------------|
D|----2---2---6---4---4---4---4-------------|

Youngbloods, run free forever
Forget the death that's ever nearer
Youngbloods, young hearts alike
Let the fires burn inside your eyes
We won't give up these memories
We won't go near those cemeteries
Youngbloods, young hearts alike
Let the fires burn inside your eyes



************************************

| s  Slide

************************************
Добавлено: 24.06.2018
Другие материалы по этой песне:
  • Аккорды и текст

Страница создана 24.06.2018
https://primanota.ru/illy/youngbloods-chords.htm

Привет, гитарист!

Тебе подарок от сайта PrimaNota.ru

Забрать подарок
ВАМ ПОДАРКИ ОТ ПРОЕКТА
"ГИТАРНАЯ РЕВОЛЮЦИЯ"