Войти:  Facebook Google Twitter Vk Yandex Mail.ru
PrimaNota.ru - самый крупный в мире бесплатный архив песенных текстов, аккордов, табулатур и нот


Illy - Swear Jar - табы

Печатать
Лучшая metal-группа Петербурга

Swear Jar

  • аккорды, текст

Illy 
Swear Jar

[Intro]

e|--------------------------------------------------------------
B|-------2--------2---------------------------------------------
G|---3-3------3-3---3-3-1-3-------------------------------------
D|--------------------------------------------------------------
A|--------------------------------------------------------------
E|--------------------------------------------------------------


[Verse] & [Chorus]

e|--------------------------------------------------------------
B|--------------------------------------------------------------
G|--3---3-3----3---3-3----6---6-6----3---3-3--------------------
D|--3---3-3----3---3-3----6---6-6----3---3-3--------------------
A|--1---1-1----1---1-1----4---4-4----1---1-1--------------------
E|--------------------------------------------------------------


[Hook]

e|--------------------------------------------------------------
B|--------------------------------------------------------------
G|----8------6------3---3-3-------------------------------------
D|----8------6------3---3-3-------------------------------------
A|----6------4------1---1-1-------------------------------------
E|--------------------------------------------------------------


[Intro]

e|--------------------------------------------------------------
B|-------2--------2---------------------------------------------
G|---3-3------3-3---3-3-1-3-------------------------------------
D|--------------------------------------------------------------
A|--------------------------------------------------------------
E|--------------------------------------------------------------


[Verse]

e|--------------------------------------------------------------
B|--------------------------------------------------------------
G|--3---3-3----3---3-3----6---6-6----3---3-3--------------------
D|--3---3-3----3---3-3----6---6-6----3---3-3--------------------
A|--1---1-1----1---1-1----4---4-4----1---1-1--------------------
E|--------------------------------------------------------------

Way back in adolescence I learnt one simple lesson
 First impressions last and showing love don't take much effort
 I fanned out on an idol, got brushed and still won't forget it
So these days when I see artists on that too cool shit my message to them's like
 All due respect here there's no respect due
 So fuck you, fuck you man
Some artists on that high horse like they just put Thriller out
Some artist care about music less than Instagram accounts
 They told me drink that Kool-Aid, oh hell nah, I spit that out
And as much as I would love to give the benefit of doubt
 I'm sayin nah


[Hook]

e|--------------------------------------------------------------
B|--------------------------------------------------------------
G|----8------6------3---3-3-------------------------------------
D|----8------6------3---3-3-------------------------------------
A|----6------4------1---1-1-------------------------------------
E|--------------------------------------------------------------

All due respect here, there's no respect due
 If you in it for the status I dedicate this to you
 I'm saying


[Chorus]

e|--------------------------------------------------------------
B|--------------------------------------------------------------
G|--3---3-3----3---3-3----6---6-6----3---3-3--------------------
D|--3---3-3----3---3-3----6---6-6----3---3-3--------------------
A|--1---1-1----1---1-1----4---4-4----1---1-1--------------------
E|--------------------------------------------------------------

 Fuck you and you and you and you
 You're cool but fuck you and I'm outta here
 Fuck you and you and you and you
 You're cool but fuck you and I'm outta here
 All due respect here, there's no respect due
 So fuck you


[Verse]

e|--------------------------------------------------------------
B|--------------------------------------------------------------
G|--3---3-3----3---3-3----6---6-6----3---3-3--------------------
D|--3---3-3----3---3-3----6---6-6----3---3-3--------------------
A|--1---1-1----1---1-1----4---4-4----1---1-1--------------------
E|--------------------------------------------------------------

Okay lets flip that to the wild shit people say to get attention
 You know the reason mama said don't read no comment sections
I'd hit back but whenever I tell them kiss my bare ass
 My two cents got me emptying my wallet in a swear jar
Still all due respect here, there's no respect due
 So fuck you, oh my bad
Pardon my french, putain, big no-no, wash my mouth out with soap, oh
You don't like it, by all means yo hit my socials, let me know so
Hold breathe till I reply then die waitin' then have your folks post
 Funeral details online so I can come take Snapchat photos, man


[Hook]

e|--------------------------------------------------------------
B|--------------------------------------------------------------
G|----8------6------3---3-3-------------------------------------
D|----8------6------3---3-3-------------------------------------
A|----6------4------1---1-1-------------------------------------
E|--------------------------------------------------------------

 All due respect here, there's no respect due
You spend all day online just cutting down what people do
 My words to you are


[Chorus]

e|--------------------------------------------------------------
B|--------------------------------------------------------------
G|--3---3-3----3---3-3----6---6-6----3---3-3--------------------
D|--3---3-3----3---3-3----6---6-6----3---3-3--------------------
A|--1---1-1----1---1-1----4---4-4----1---1-1--------------------
E|--------------------------------------------------------------

 Fuck you and you and you and you
 You're cool but fuck you and I'm outta here
 Fuck you and you and you and you
 You're cool but fuck you and I'm outta here
 All due respect here, there's no respect due
 So fuck you


[Bridge]

N.C.
One-two, one-two
 Now ladies and gentleman I know I'm not perfect, hell
 I'm probably guilty of this shit myself
 But I've tried, oh I try not to put myself above nobody
 Or get my kicks kicking somebody else, yeah
 But if you're tired of the bullshit people throw your way
 I've got this one little phrase that helps
 It goes


[Chorus]

e|--------------------------------------------------------------
B|--------------------------------------------------------------
G|--3---3-3----3---3-3----6---6-6----3---3-3--------------------
D|--3---3-3----3---3-3----6---6-6----3---3-3--------------------
A|--1---1-1----1---1-1----4---4-4----1---1-1--------------------
E|--------------------------------------------------------------

 Fuck you and you and you and you
 You're cool but fuck you and I'm outta here
 Fuck you and you and you and you
 You're cool but fuck you and I'm outta here
 All due respect here, there's no respect due
 So fuck you   
Другие композиции этого автора:
Другие материалы по этой песне:
  • Аккорды, текст

https://primanota.ru/illy/swear-jar-chords.htm

Привет, гитарист!

Тебе подарок от сайта PrimaNota.ru

Забрать подарок
ВАМ ПОДАРКИ ОТ ПРОЕКТА
"ГИТАРНАЯ РЕВОЛЮЦИЯ"