Войти:  Facebook Google Twitter Vk Yandex Mail.ru
PrimaNota.ru - самый крупный в мире бесплатный архив песенных текстов, аккордов, табулатур и нот


Illy - Catch 22 - аккорды и текст, видео

Печатать
Просмотров: 52
Лучшая metal-группа Петербурга

Catch 22

  • аккорды и текст
Тональность: 
0
Проще! Аппликатуры

Catch 22
Illy
Illy
Catch 22

[Chords]
F  133211
C  x32010
Am x02210
G  320033


[Hook]
    F                         C
And stay, stay, stay, another round
                       Am 
'Cause who wants to live forever?
                  C
Who wants to burn it down?
              G
Down, down, down, down 
   F                    C
And we can paint the town
                             Am
'Cause who wants to sing the blues?
                         C
So some you win or some you lose
       G
It's all a catch-22


[Verse 1]
                         F
Yeah, I could be getting old, but I'm getting round
          C
Call it immature, sure, but hear me out
                       Am
'Cause the only thing promised is the here and now
              C               G
If we didn't live it up, never live it down, yeah
              F
And when I jump I hold on, I'm like, "Oh my Lord"
      C
If it all goes wrong then it's all my fault
     Am 
Man, some just want to watch your world burn 
              C              G
But some on the straight and narrow lost first turn, so
           F
Before you play, take a page of my own advice
              C
It's all a game, know the price when you roll the dice
             F
And what's the rush man? Nowhere else to go tonight
            Am                   G
And we ain't getting out on time, let alone alive
            F
The choice is yours, your down for the cause
               C
Be hated or adored, but never ignored
               F
And whatever card you draw you can't win them all
             Am                 G
So leave the sad songs at the door, get involved and


[Hook]
     F                        C
And stay, stay, stay, another round
                      Am
'Cause who wants to live forever?
                      C  
Who wants to burn it down?
            G
Down, down, down, down
 F                    C
And we can paint the town
                            Am                   
'Cause who wants to sing the blues?
                        C
So some you win or some you lose
            G
It's all a catch-22

e|-------------------------------------------------------------|
B|-------------------------------------------------------------|
G|-------------------------------------------------------------|
D|--0-----2--0------0-----0-2-3-2-0----------------------------|
A|----3---------3------3------------3--------------------------|
E|-------------------------------------------------------------|
                                                               |   x 1
e|-------------------------------------------------------------|
B|-------------------------------------------------------------|
G|-------------------------------------------------------------|
D|--0-----2--0------0-----0-2-3-3-2-0--------------------------|
A|----3---------3------3---------------3-----------------------|
E|-------------------------------------------------------------|

It's all a catch-22


[Verse 2]
          F
Oh, you're not happy where you at heart, fuck it off then
         C
Just make it not for nothing when you cut your losses
           Am
You haven't got it made, but you got your options
           C                     G
Ditch smokes for sleep, ditch shots for crossfit
         F
What you tryna live longer? Take a bow
        C
What's the point of all those years if you spend them missing out?
             Am
Some of it's worth the risk, hoping you don't forget
       C                G
Bad as the world can get none of it's permanent
F
So no politics or parties, even if
C
We solving world problems with our lager on our lips
F
And for all the easy ways out, the harder that it gets
 C                      G                 
Now isn't that ironic? No Alanis Morissette
F
We a hard act to follow, pouring the bottle
C
YOLO the motto, could all end tomorrow
F
Set your watch fast, stay ahead of your time
C                 G
If you wait, might never arrive, that's the vibe so


[Hook]
     F                        C
And stay, stay, stay, another round
                      Am
'Cause who wants to live forever?
                      C  
Who wants to burn it down?
            G
Down, down, down, down
 F                    C
And we can paint the town
                            Am                   
'Cause who wants to sing the blues?
                        C
So some you win or some you lose
            G
It's all a catch-22

e|-------------------------------------------------------------|
B|-------------------------------------------------------------|
G|-------------------------------------------------------------|
D|--0-----2--0------0-----0-2-3-2-0----------------------------|
A|----3---------3------3------------3--------------------------|
E|-------------------------------------------------------------|
                                                               |   x 1
e|-------------------------------------------------------------|
B|-------------------------------------------------------------|
G|-------------------------------------------------------------|
D|--0-----2--0------0-----0-2-3-3-2-0--------------------------|
A|----3---------3------3---------------3-----------------------|
E|-------------------------------------------------------------|

[Outro]

e|-------------------------------------------------------------|
B|-------------------------------------------------------------|
G|-------------------------------------------------------------|
D|--0-----2--0------0-----0-2-3-2-0----------------------------|
A|----3---------3------3------------3--------------------------|
E|-------------------------------------------------------------|
                                                               |   x 6 
e|-------------------------------------------------------------|
B|-------------------------------------------------------------|
G|-------------------------------------------------------------|
D|--0-----2--0------0-----0-2-3-3-2-0--------------------------|
A|----3---------3------3---------------3-----------------------|
E|-------------------------------------------------------------|

It's all a catch-22

Some paint the town (some paint the town)

Some sing the blues (some sing the blues)

Oh some you win, oh some you lose

It's all a catch-22

Some paint the town (some paint the town)

Some sing the blues (some sing the blues)

Oh some you win, oh some you lose

It's all a catch-22

Some paint the town (some paint the town)

Some sing the blues (some sing the blues)

Oh some you win, oh some you lose

It's all a catch-22

Some paint the town (some paint the town)

Some sing the blues (some sing the blues)

Oh some you win, oh some you lose

It's all a catch-22
Добавлено: 24.06.2018
Другие материалы по этой песне:
  • Аккорды и текст

Страница создана 24.06.2018
https://primanota.ru/illy/catch-22-chords.htm

Привет, гитарист!

Тебе подарок от сайта PrimaNota.ru

Забрать подарок
ВАМ ПОДАРКИ ОТ ПРОЕКТА
"ГИТАРНАЯ РЕВОЛЮЦИЯ"