Войти:  Facebook Google Twitter Vk Yandex Mail.ru
PrimaNota.ru - самый крупный в мире бесплатный архив песенных текстов, аккордов, табулатур и нот


Ice Nine Kills - The Greatest Story Ever Told - табы

Печатать
ViraMusic 2019 в Петербурге 4 апреля 2019! Скидка 10%!

The Greatest Story Ever Told

  • аккорды, текст
  • gtp-табы

Авторы: Jeremy Schwartz, Spencer Charnas

---------------------------------------------------------------------------
              The Greatest Story Ever Told - Ice Nine Kills
----------------------------------------------------------------------------
Tabbed by:Jesse
Email:Jss_montgomery@yahoo.com

Tuning: Drop D

  0:00-0:03
e|-13-15-16-15-13-16-15-13-15-13-11--13-15-16-15-13-18-16-15-15-13----|
B|-----------------------------------------------------------------16-|
G|--------------------------------------------------------------------|
D|--------------------------------------------------------------------|
A|--------------------------------------------------------------------|
D|--------------------------------------------------------------------|
  0:04-0:06
e|--------------------------------------15-13-11-15-13-11--------15-13-11--|
B|--15h16p15----------15h16p15---------------------------12-13-15--------13|
G|-----------13h15p13----------13h15p13------------------------------------|
D|-------------------------------------------------------------------------|
A|-------------------------------------------------------------------------|
D|-------------------------------------------------------------------------|
  0:00-0:04
e|-------------------------------------------------------------------------|
B|-------------------------------------------------------------------------|
G|-------------------------------------------------------------------------|
D|-5-----------------------------------------------------------------------|
A|-3----------------------------5-------------------------------6----------|
D|------------------------------5-------------------------------6----------|

Ill tab the rest soon

| /  slide up
| \  slide down
| h  hammer-on
| p  pull-off
| ~  vibrato
| +  harmonic
| x  Mute note
   
https://primanota.ru/ice-nine-kills/the-greatest-story-ever-told-chords.htm

Привет, гитарист!

Тебе подарок от сайта PrimaNota.ru

Забрать подарок
ВАМ ПОДАРКИ ОТ ПРОЕКТА
"ГИТАРНАЯ РЕВОЛЮЦИЯ"