Войти:  Facebook Google Twitter Vk Yandex Mail.ru
PrimaNota.ru - самый крупный в мире бесплатный архив песенных текстов, аккордов, табулатур и нот


I Am X - The Stupid The Proud - текст песни, табы

  • аккорды, текст

I tabbed this by myself, and I am not sure if it's right, but i think it should be. 

Use capo on 3th fret. It sounds better and it's easier to play.



Still repeat this, in chorus strum bass strings harder 

E||------------------|------------------||
B||-----1-1-----1-1--|------------------||
G||-----2-2-----2-2--|-----1-1-----1-1--||  
D||-----2-2-----2-2--|-----2-2-----2-2--||
A||--0-------3-------|-----2-2-----2-2--||
E||------------------|--0-------4-------||



God is dead,
We get to sleep tonight,
Walk with me into the truth,
Out of your lies.

Man equals woman.
I'm just the messenger don't shoot me down.

The army, so faithful,
The killers of reason,
The grief for the crown.

Chorus:

The stupid, the proud,
They blow our houses down!
The stupid, the proud,
They blow our houses down!

solo :

E||-----8-15--11-10--13--11-10-11-10-11-10------||
B||-8-9-------------------------------------9-8-||
G||---------------------------------------------||
D||---------------------------------------------||
A||---------------------------------------------||
E||---------------------------------------------||

Exalt yourself,
Do it to stay alive.
Serve your duty,
You must demand, they must abide.

Queer is the universe,
Habit the liberty, destructive in time,

Hunt down your future
and everything you know is not enough to survive!

Chorus : 

The stupid, the proud,
They blow our houses down!
The stupid, the proud,
They blow our houses down!   
https://primanota.ru/i-am-x/the-stupid-the-proud-chords.htm

Привет, гитарист!

Тебе подарок от сайта PrimaNota.ru

Забрать подарок
ВАМ ПОДАРКИ ОТ ПРОЕКТА
"ГИТАРНАЯ РЕВОЛЮЦИЯ"