Войти:  Facebook Google Twitter Vk Yandex Mail.ru
PrimaNota.ru - самый крупный в мире бесплатный архив песенных текстов, аккордов, табулатур и нот


Hurt - Rapture - текст песни, табы

Печатать
ViraMusic 2019 в Петербурге 4 апреля 2019! Скидка 10%!

Rapture

  • аккорды, текст
  • gtp-табы

www.hurtband.com

Intro
e---------------------------------------------------|
b-------5-------------------------------------------|
g-----5---------------------------------------------|
d-----5---------------------------------------------|
a---4------4—4^-------------------------------------| x8
D---------------------------------------------------| 

Palm-muted
e---------------------------------------------------|
b---------------------------------------------------|
g---------------------------------------------------|
d--11-11-11-11-11-11—11-11--------------------------|
a--11-11-11-11-11-11—11-11--------------------------| x4
D--11-11-11-11-11-11—11-11--------------------------| 

Listen for exact # of strums
e--------------------------------------------------------------------------|
b--------------------------------------------------------------------------|
g---6-6-6-6--13--11-11-11-11--13--11-11-11-11--9-9-9-9--4-4-4-4--6-6-6-6---|
d---x-x-x-x---x--x--x--x--x---x---x--x--x--x-- x-x-x-x--x-x-x-x--x-x-x-x---|
a---4-4-4-4--11--9--9—-9--9---11--9--9—-9--9---7-7-7-7--2-2-2-2--4-4-4-4---| x1
D--------------------------------------------------------------------------| 

Verse 1- muted
e-------------------------------------------------------------------------|
b-------------------------------------------------------------------------|
g-------------------------------------------------------------------------|
d--11-11-11-11-11-11-11-11----------11-11-11-11-11-11-11-11--13--9--------|
a--11-11-11-11-11-11-11-11-------—--11-11-11-11-11-11-11-11--13--9--------|
D--11-11-11-11-11-11-11-11-13-11-9--11-11-11-11-11-11-11-11--13--9--------|x2


Prechorus- muted
e---------------------------------------------------|
b---------------------------------------------------|
g---------------------------------------------------|
d--11-11-11-11-11-11—11-11--------------------------|
a--11-11-11-11-11-11—11-11--------------------------| x8
D--11-11-11-11-11-11—11-11--------------------------|

Chorus 1- no distortion
e---------------------------------------------------|
b---------------------------------------------------|
g--6-6-6-6---8-8-8-8--9-9-9-9--11-11-11-11----------|
d--6-6-6-6---8-8-8-8--9-9-9-9--11-11-11-11----------|
a--4-4-4-4-—-6-6-6-6--7-7-7-7--9--9--9--9-----------| x4
D---------------------------------------------------|

Use hard down strokes
e---------------------------------------------------|
b---------------------------------------------------|
g---------------------------------------------------|
d--11-11---11-11---11-11—--11-11--13--9-------------|
a--11-11---11-11---11-11—--11-11--13--9-------------| x4
D--11-11---11-11---11-11—--11-11--13--9-------------|

Verse 2 same as verse 1
Prechorus
Chorus 2- distortion
Intro Riff
Chorus
Outro Riff- same chords as chorus just variation of strumming
   
https://primanota.ru/hurt/rapture-chords.htm

Привет, гитарист!

Тебе подарок от сайта PrimaNota.ru

Забрать подарок
ВАМ ПОДАРКИ ОТ ПРОЕКТА
"ГИТАРНАЯ РЕВОЛЮЦИЯ"