» 
 » 
The Pink Panther Theme



Henry Mancini - The Pink Panther Theme - табы

Бесплатный вокальный онлайн-квест VOX7
  • аккорды, текст
  • gtp-табы
Pink Panther Theme tune, version as played by Michael Lucarelli. Classical guitar version.
For his version, see https://www.youtube.com/watch?v=zErZocSkqS0

e|---------------------------------------------------------------------------|
B|---------------------------------------------------------------------------|
G|---------------------------------------------------------------------------|
D|--2-/-3--4-/-5-----------------------------2-/-3--4-/-5--------------------|
A|--4-/-5--6-/-7-----------------------------4-/-5--6-/-7--------------------|
E|--2-/-3--4-/-5-----------------------------2-/-3--4-/-5--------------------|
                  (tap guitar to the beat)
e|---------------------------------------------------------------------------|
B|---------------------------------------------------------------------------|
G|---------------------------------------------------------------------------|
D|--4-/-3--2-/-1--------------------------------2-/-3--4-/-5-----------------|
A|--6-/-5--4-/-3--------------------------------4-/-5--6-/-7-----------------|
E|--4-/-3--2-/-1--------------------------------2-/-3--4-/-5-----------------|
                  (continue tapping in breaks)
e|----------------------------------------1--0------------0-------------------------------|
B|-----------------0--1-------------0-1-------------1--------4------3--1------------------|
G|----------------------------1--2---------------2----------------------2--0-2-2----------|
D|--2-/-3--4-/-5--------------------------------------------------------------------------|
A|--4-/-5--6-/-7-----------------0--------------------------------3--------------------3--|
E|--2-/-3--4-/-5------0-----------------------------4--3--2--1---------------------1------|

e|----------------------------------------1--0------0--5--4--4--4-4-4-4------------------|
B|-----------------0--1-------------0-1----------1-----------3--3-3-3-3------------------|
G|----------------------------1--2---------------------------1--1-1-1-1----3-------------|
D|--2-/-3--4-/-5------------------------------------------0--1--1-1-1-1-------3----------|
A|--4-/-5--6-/-7-----------------0---------------------0-----1--1-1-1-1----------1-------|
E|--2-/-3--4-/-5------0--------------------------3--4---------------------------------1--|

e|----------------------------------------1--0------------0-----|
B|-----------------0--1-------------0-1-------------1--------4--|
G|----------------------------1--2---------------2--------------|
D|--2-/-3--4-/-5------------------------------------------------|
A|--4-/-5--6-/-7-----------------0------------------------------|
E|--2-/-3--4-/-5------0-----------------------------4--3--2--1--|

e|------------------------------------3/5--3--0--------------------------------|
B|----3--1---------------------------------------3--1------4-3--4-3--4-3--4-3--|
G|----------2-0-2--------------------------------------2-----------------------|
D|--------------------2-/-3--4-/-5---------------------------------------------|
A|--3-------------3---4-/-5--6-/-7---------------------------------------------|
E|--------------1-----2-/-3--4-/-5---------------------------------------------|

e|--------------------0-------0-----------------------------1----1------|
B|--1----------------1-------1------------1-----------------1----1------|
G|-----2--0--2-2-----2-------2---------------2-0--2--2------2----2------|
D|--2------------------------------------------------------3----3-------|
A|--0--------------------0------------------------------3------------3--|
E|---------------0----------------4-3--2--1--------------------1--------|

e|------------------------------|
B|----------1-------------------|
G|-------------2-0--2-2---------|
D|------------------------------|
A|----------0-------------------|
E|--2-3--4----------------------|

e|----------------------------------------1--0------------0-------------------------|
B|-----------------0--1-------------0-1-------------1--------4------3--1------------|
G|----------------------------1--2---------------2----------------------2--0-2-2----|
D|--2-/-3--4-/-5--------------------------------------------------------------------|
A|--4-/-5--6-/-7-----------------0--------------------------------3--------------3--|
E|--2-/-3--4-/-5------0-----------------------------4--3--2--1-----------------1----|

e|----------------------------------------1--0------0--5--4--4--4-4-4-4-----------------|
B|-----------------0--1-------------0-1----------1-----------3--3-3-3-3-----------------|
G|----------------------------1--2---------------------------1--1-1-1-1----3------------|
D|--2-/-3--4-/-5---------------------------------------------1--1-1-1-1-------3---------|
A|--4-/-5--6-/-7-----------------0---------------------0--0--1--1-1-1-1----------1------|
E|--2-/-3--4-/-5------0--------------------------3--4--------------------------------1--|

e|----------------------------------------1--0------------0-----|
B|-----------------0--1-------------0-1-------------1--------4--|
G|----------------------------1--2---------------2--------------|
D|--2-/-3--4-/-5------------------------------------------------|
A|--4-/-5--6-/-7-----------------0------------------------------|
E|--2-/-3--4-/-5------0-----------------------------4--3--2--1--|

e|-------------------------------------3/5--3--0--------------------------------|
B|----3--1----------------------------------------3--1------4-3--4-3--4-3--4-3--|
G|----------2-0-2---------------------------------------2-----------------------|
D|-------------------3--2-/-3--4-/-5--------------------------------------------|
A|--3-------------3-----4-/-5--6-/-7--------------------------------------------|
E|--------------1-------2-/-3--4-/-5--------------------------------------------|

e|--------------------0-------0-----------------------------1-----1-------|
B|--1----------------1-------1------------1-----------------1-----1-------|
G|-----2--0--2-2-----2-------2---------------2-0--2--2------2-----2-------|
D|--2------------------------------------------------------3-----3--------|
A|--0--------------------0------------------------------3--------------3--|
E|---------------0----------------4-3--2--1--------------------1----------|

e|-----------------------------00-------0------------------------------------1-----1-----------------------|
B|-----------1-----------------1-------1------------------1------------------1-----1---------------------1-|
G|---------------2--0--2-2-----2-------2----------------------2-0--2--2------2-----2---------------2-----2-|
D|-----------2--------------------------------------------------------------3-----3------------3---------3-|
A|-----------0--------------------0--------------------------------------3--------------3----------------3-|
E|-2--3--4----------0-------------------------4-3--2--1-------------------------1------------------------1-|   

Henry Mancini - The Pink Panther Theme - ноты

(включить)
Другие материалы по этой песне:

https://primanota.ru/henry-mancini/the-pink-panther-theme-chords.htm

Привет, гитарист!

Тебе подарок от сайта PrimaNota.ru

Забрать подарок
ВАМ ПОДАРКИ ОТ ПРОЕКТА
"ГИТАРНАЯ РЕВОЛЮЦИЯ"