Войти:  Facebook Google Twitter Vk Yandex Mail.ru
PrimaNota.ru - самый крупный в мире бесплатный архив песенных текстов, аккордов, табулатур и нот


hearts & colors - Fireflies - табы

Печатать
Лучшая metal-группа Петербурга

Fireflies

  • аккорды, текст

[Intro]

   *       *           *       *     *       *         *       *    
e|-----0---------------------------|-------------------------------|
A|-0---------------------0---------|-------------------------------|
A|-2/4---4\2p0----0----0-----0-----|-----0-----0---------------0---|
E|-0--------------2/4------4---0---|---0-----0-----0-----------0---|
A|-0-------------------------------|---------------2/4\2p0-----0---|
D|---------------------------------|-2-----4----------------2--0---|

   *       *           *       *       *       *        *    *    
e|-----0---------------------------|-------------------------(12)--|
A|-0---------------------0---------|-------------------------(12)--|
A|-2/4---4\2p0----0----0-----0-----|-------0-----0--0--------------|
E|-0--------------2/4------4---0---|-0---0-----0----0--------------|
A|-0-------------------------------|----------------0--------------|
D|---------------------------------|---2-----4------0--------------|


************************************

| p    Pull-off
| /    Slide up
| \    Slide down
| (n)  Ghost note

************************************   
Другие композиции этого автора:
Другие материалы по этой песне:
  • Аккорды, текст

https://primanota.ru/hearts-and-colors/fireflies-chords.htm

Привет, гитарист!

Тебе подарок от сайта PrimaNota.ru

Забрать подарок
ВАМ ПОДАРКИ ОТ ПРОЕКТА
"ГИТАРНАЯ РЕВОЛЮЦИЯ"