Войти:  Facebook Google Twitter Vk Yandex Mail.ru
PrimaNota.ru - самый крупный в мире бесплатный архив песенных текстов, аккордов, табулатур и нот


Hamlet - Tortura Visión - табы, бас-таба, видео

Печатать
Лучшая metal-группа Петербурга

Tortura Visión

  • аккорды и текст

NOTACION

p= pull off
s= slide
>= mantener el sonido
Harm= harmónico (si va seguido de una línea de puntos
hacerlo hasta donde termine la línea de puntos)
PM= palm muted (si va seguido de una línea de puntos hacerlo
hasta donde termine la línea de puntos)

------------------------------------------------------------
------------------------------------------------------------   

AFINACION

Afinación en C (C,F,Bb,Eb,G,C): afina todas las cuerdas de
la guitarra cuatro semitonos menos

------------------------------------------------------------
------------------------------------------------------------


-----
INTRO
-----


1) (x2)


-----------------------------
-----------------------------
-------5--5------------------
-------5--5--5--5--7---------
-------3--3--5--5--7---------
--0-0--------3--3--5--0-0-0--
  PM.                 PM... 

-------------------------------
-------------------------------
-------12--12--7--7--9---------
-------10--10--5--5--7---------
-------10--10--5--5--7---------
--0-0-------------------0-0-0--  
  PM.                   PM... 


2) (x2)


-------------------------------
-------------------------------
-------12--12--7--7--9---------
-------10--10--5--5--7---------
-------10--10--5--5--7---------
--0-0-------------------0-0-0--  
  PM.                   PM... 

-----------------------------
-----------------------------
-------5--5------------------
-------5--5--5--5--7---------
-------3--3--5--5--7---------
--0-0--------3--3--5--0-0-0--
  PM.                 PM... 


-------
VERSO 1
-------


1) (x5)


[Arreglo de bajo para guitarra]
------------------------------------------------------------
------------------------------------------------------------
------------------------------------------------------------
------------------------------------------------------------
------------------------------------------------------------
--0-0--0-0--0-0--0-0--0-0--0-0--0-0--0-0--0-0--0-0--0--1-1--
  PM......................................................


2) (Qué cruel,no,¡por favor!)   


----------------------4-4-------4-4------------
---------------------------4-4-------4---------
-----------------------------------------------
----------0------------------------------------
-----------------------------------------------
--0-0-0-------0-0-0----------------------12s0--
  PM...       PM...   Harm............


2) (Dejadme pensar, no quiero visionar...)


Tocar lo mismo que en la Intro


3)


--------------------------------------------------------5--
---------------------------------------------------5-------
---------------------5---------5----5-5-------5------5-----
-----------5----5------5--5-5----5-------5-5----5----------
-------------5----5----------------------------------------
--5-5-5-5--------------------------------------------------
  Harm...................................................


-------
VERSO 2
-------


1) (Distraer a base de cotillear...) (x4)


------------------------------------------------------------
------------------------------------------------------------
-------------------------------------------------------5--5-
-------------------------------------------------------3--3-
-------------------------------------------------------3--3-
--0-0--0-0--0-0--0-0--0-0--0-0--0-0--0-0--0-0--0-0--0-------
  PM.................................................


2) (x2)


-----------------------------------
-----------------------------------
--4--------------------------------
--4-------6s7-----7--6-----5-------
--2-------6s7-----7--6-----5-------
-----0-0--4s5--0--5--4--0--3--0-0--
     PM.       PM       PM    PM.

-----------------------------------
-----------------------------------
-----------------------------------
--9-------6s7-----7--6-----5-------
--9-------6s7-----7--6-----5-------
--7--0-0--4s5--0--5--4--0--3--0-0--
     PM.       PM      PM    PM.


--------
CHORUS 1
--------


1) (Engañados) [Con efectos] (x2)
         

--0--0----0--0--0--0--0----0--0----0--0--0--0--0--
--------------------------------------------------
--4--4----4--4--4--4--4----6--6----6--6--6--6--6--
--2--2----2--2--2--2--2----4--4----4--4--4--4--4--
--------------------------------------------------
--------------------------------------------------

--0--0----0--0--0--0--0----0--0----0--0--0--0--0--
--------------------------------------------------
--7--7----7--7--7--7--7----9--9----9--9--9--9--9--
--5--5----5--5--5--5--5----7--7----7--7--7--7--7--
--------------------------------------------------
--------------------------------------------------

--0--0----0--0--0--0--0----0--0----0--0--0--0--0--
--------------------------------------------------
--4--4----4--4--4--4--4----6--6----6--6--6--6--6--
--2--2----2--2--2--2--2----4--4----4--4--4--4--4--
--------------------------------------------------
--------------------------------------------------

--0--0----0--0--0--0--0----0--0--0--0----0--0--0--0--
-----------------------------------------------------
--7--7----7--7--7--7--7----7--7--7--7----4--4--4--4--
--5--5----5--5--5--5--5----7--7--7--7----4--4--4--4--
---------------------------5--5--5--5----2--2--2--2--
-----------------------------------------------------


2) (Me crees imbécil para no saber...) (x2)


--------------------------------------------------
--------------------------------------------------
--2--2----2--2--2--2--2----4--4----4--4--4--4--4--
--2--2----2--2--2--2--2----4--4----4--4--4--4--4--
--0--0----0--0--0--0--0----2--2----2--2--2--2--2--
--------------------------------------------------

--------------------------------------------------
--------------------------------------------------
--5--5----5--5--5--5--5----7--7----7--7--7--7--7--
--5--5----5--5--5--5--5----7--7----7--7--7--7--7--
--3--3----3--3--3--3--3----5--5----5--5--5--5--5--
--------------------------------------------------

--------------------------------------------------
--------------------------------------------------
--2--2----2--2--2--2--2----4--4----4--4--4--4--4--
--2--2----2--2--2--2--2----4--4----4--4--4--4--4--
--0--0----0--0--0--0--0----2--2----2--2--2--2--2--
--------------------------------------------------

---------------------------------------------------
---------------------------------------------------
--5--5----5--5--5--5--5----------------------------
--5--5----5--5--5--5--5----5--5--5--5--5--5--5--5--
--3--3----3--3--3--3--3----5--5--5--5--5--5--5--5--
---------------------------3--3--3--3--3--3--3--3--


-------
VERSO 3 (Dejadme pensar, no quiero visionar...)
-------


Tocar lo mismo que en Intro


--------
CHORUS 2
--------


1) (Falsear toda información...)


Tocar lo mismo que en la parte 1 del Chorus 1


2) (Herir nuestra sensibilidad)

--------------------------------------------------
--------------------------------------------------
--4--4----4--4--4--4--4----6--6----6--6--6--6--6--
--2--2----2--2--2--2--2----4--4----4--4--4--4--4--
--------------------------------------------------
--------------------------------------------------

--------------------------------------------------
--------------------------------------------------
--7--7----7--7--7--7--7----9--9----9--9--9--9--9--
--5--5----5--5--5--5--5----7--7----7--7--7--7--7--
--------------------------------------------------
--------------------------------------------------


3) (Sin moral, objetivo llorar...)

----------------------------------
----------------------------------
--11--11--11--11--11--11--11--11-- (x2)
---9---9---9---9---9---9---9---9--
----------------------------------
----------------------------------

----------------------------------
--12--12--12--12--12--12--12--12--
---------------------------------- (x6)
---9---9---9---9---9---9---9---9--
----------------------------------
----------------------------------


-------
VERSO 4 (Dejadme pensar, no quiero visionar...)
-------


Tocar lo mismo que en Intro


-----
FINAL (¡No manipular!)
-----


1)


Guitarra 1
----------

-------------------------------
--5p3--5--5p3--5--5p3--5--5p3--
------------------------------- (x4)
-------------------------------
-------------------------------
-------------------------------


Guitarra 2
----------

Tocar lo mismo que en Intro


2)


--0>--
--5>--
--3>--
--0>--
--0>--
--0>--


------------------------------------------------------------
------------------------------------------------------------   
Добавлено: 21.10.2014
Другие материалы по этой песне:
  • Аккорды и текст

Страница создана 10.09.2014
https://primanota.ru/hamlet/tortura-vision-2-chords.htm

Привет, гитарист!

Тебе подарок от сайта PrimaNota.ru

Забрать подарок
ВАМ ПОДАРКИ ОТ ПРОЕКТА
"ГИТАРНАЯ РЕВОЛЮЦИЯ"