Войти:  Facebook Google Twitter Vk Yandex Mail.ru
PrimaNota.ru - самый крупный в мире бесплатный архив песенных текстов, аккордов, табулатур и нот


Halestorm - Mayhem - таба, видео

Печатать
Просмотров: 182
Лучшая metal-группа Петербурга

Mayhem

  • аккорды и текст

Halestorm - Mayhem
Tuning: Drop D

[Intro]

     PM PM        PM PM PM             PM PM             PM PM PM
E||--------10--------------11-------|--------10----11-------------10-----|
B||--------13b-------------14b------|--------13b---14b------------13b----|
G||---------------------------------|------------------------------------|
D||--0--0---------0--0--0-----------|--0--0--------------0--0--0---------|
A||--0--0---------0--0--0-----------|--0--0--------------0--0--0---------|
D||--0--0---------0--0--0-----------|--0--0--------------0--0--0---------|

       PM PM PM
E|--------------11------------------|----------|
B|--------------14b-----------------|----------|
G|----------------------------------|----------|
D|-----0--0--0----------------------|----------|
A|-----0--0--0----------------------|----------|
D|-----0--0--0----------12-15-11-14-|--10-13---|

    PM PM PM        PM PM PM            PM PM             PM PM PM
E|-----------10--------------11------|--------10----11-------------10-----|
B|-----------13b-------------14b-----|--------13b---14b------------13b----|
G|-----------------------------------|------------------------------------|
D|--0--0--0---------0--0--0----------|--0--0--------------0--0--0---------|
A|--0--0--0---------0--0--0----------|--0--0--------------0--0--0---------|
D|--0--0--0---------0--0--0----------|--0--0--------------0--0--0---------|

       PM PM PM
E|--------------11------------------|----------||
B|--------------14b-----------------|----------||
G|----------------------------------|----------||
D|-----0--0--0----------------------|----------||
A|-----0--0--0----------------------|----------||
D|-----0--0--0----------12-15-11-14-|--10-13---||


[Verse] [bass]

G|----------------|----------------|----------------|----------------|
D|----------------|----------------|----------------|----------------|
A|----------------|----------------|----------------|----------------|
D|3-3-3-3-3-3-3-3-|0-0-0-0-0-0-0-0-|7-7-7-7-7-7-7-7-|7-7-7-7-7-7-7-7-|


[Verse] 

[guitar] Use Palm mute during verse
E|----------------|----------------|----------------|----------------|
B|----------------|----------------|----------------|----------------|
G|----------------|----------------|----------------|----------------|
D|----------------|----------------|----------------|----------------|
A|3-3-3-3-3-3-3-3-|0-0-0-0-0-0-0-0-|7-7-7-7-7-7-7-7-|7-7-7-7-7-7-7-7-|
D|3-3-3-3-3-3-3-3-|0-0-0-0-0-0-0-0-|7-7-7-7-7-7-7-7-|7-7-7-7-7-7-7-7-|


 [Pre-chours]

     PM PM PM PM PM PM PM PM PM PM PM PM PM
E|------------------------------------------|
B|------------------------------------------|
G|------------------------------------------|
D|------------------------------------------|
A|------------------------------------------|
D|---7--7--7--7--7--7--7--7--7--7--7--7--7--|

    PM PM PM PM PM PM PM PM PM PM PM PM PM
E|------------------------------------------||
B|------------------------------------------||
G|------------------------------------------||
D|------------------------------------------||
A|------------------------------------------||
D|--7--7--7--7--7--7--7--7--7--7--7--7--7---||


  [Chours]

E|---------------------------------------|------------------------------------|
B|---------------------------------------|------------------------------------|
G|---------------------------------------|------------------------------------|
D|---3------3--3--3--3--3--3--3--0--0--0-|----0--0--0--0--0--7--7--7--7--7--7-|
A|---3------3--3--3--3--3--3--3--0--0--0-|----0--0--0--0--0--7--7--7--7--7--7-|
D|---3------3--3--3--3--3--3--3--0--0--0-|----0--0--0--0--0--7--7--7--7--7--7-|

E|-----------------------------------||----------------------------------|
B|-----------------------------------||----------------------------------|
G|-----------------------------------||----------------------------------|
D|----7--7--7--7--7--7--7--7--7--7---||--3--3--3--3--3--3--3--3--0--0--0-|
A|----7--7--7--7--7--7--7--7--7--7---||--3--3--3--3--3--3--3--3--0--0--0-|
D|----7--7--7--7--7--7--7--7--7--7---||--3--3--3--3--3--3--3--3--0--0--0-|

                     PM PM PM           PM PM PM
E|----------------------------10-----|-----------11----|
B|----------------------------13b----|-----------14b---|
G|-----------------------------------|-----------------|
D|----0--0--0--0-----0--0--0---------|--0--0--0--------|
A|----0--0--0--0-----0--0--0---------|--0--0--0--------|
D|----0--0--0--0-----0--0--0---------|--0--0--0--------|

    PM PM             PM PM PM              PM PM PM
E|--------10----11-------------10-----|--------------11------------------|
B|--------13b---14b------------13b----|--------------14b-----------------|
G|------------------------------------|----------------------------------|
D|--0--0--------------0--0--0---------|-----0--0--0----------------------|
A|--0--0--------------0--0--0---------|-----0--0--0----------------------|
D|--0--0--------------0--0--0---------|-----0--0--0----------12-15-11-14-|

E|----------||
B|----------||
G|----------||
D|----------||
A|----------||
D|--10-13---||


  [Breakdown]

E|--------------------------------------------------|
B|--------------------------------------------------|
G|--------------------------------------------------|
D|--------------------------------------------------|
A|--------------------------------------------------|
D|--5--3--0--7--5--0--9--7--0--10-9--0--10-9--12----|

E|-----------------------------------|------------------------------------|
B|-----------------------------------|------------------------------------|
G|-----------------------------------|------------------------------------|
D|-----------------------------------|------------------------------------|
A|-----------------------------------|------------------------------------|
D|---0-----0-----0--9--10-12-0-----0-|-------0--9--10-12-0-----0-----0----|

E|----------------------------------|----------------||
B|----------------------------------|----------------||
G|----------------------------------|----------------||
D|----------------------------------|----------------||
A|----------------------------------|----------------||
D|--12-15-11-14-10-13-9--10-0-----0-|----9--10-12----||


  [Outro]

E|---------------------------------------|------------------------------------|
B|---------------------------------------|------------------------------------|
G|---------------------------------------|------------------------------------|
D|---3------3--3--3--3--3--3--3--0--0--0-|----0--0--0--0--0--7--7--7--7--7--7-|
A|---3------3--3--3--3--3--3--3--0--0--0-|----0--0--0--0--0--7--7--7--7--7--7-|
D|---3------3--3--3--3--3--3--3--0--0--0-|----0--0--0--0--0--7--7--7--7--7--7-|

E|-----------------------------------||----------------------------------|
B|-----------------------------------||----------------------------------|
G|-----------------------------------||----------------------------------|
D|----7--7--7--7--7--7--7--7--7--7---||--3--3--3--3--3--3--3--3--0--0--0-|
A|----7--7--7--7--7--7--7--7--7--7---||--3--3--3--3--3--3--3--3--0--0--0-|
D|----7--7--7--7--7--7--7--7--7--7---||--3--3--3--3--3--3--3--3--0--0--0-|

************************************

| b Bend
| PM Palm Mute

************************************
Добавлено: 24.04.2018
Другие материалы по этой песне:
  • Аккорды и текст

Страница создана 24.04.2018
https://primanota.ru/halestorm/mayhem-chords.htm

Привет, гитарист!

Тебе подарок от сайта PrimaNota.ru

Забрать подарок
ВАМ ПОДАРКИ ОТ ПРОЕКТА
"ГИТАРНАЯ РЕВОЛЮЦИЯ"