# 0 1 2 3 4 5 6 7 8 9 A B C D E F G H I J K L M N O P Q R S T U V W X Y Z
А Б В Г Д Е Ж З И І Й К Л М Н О П Р С Т У Ф Х Ц Ч Ш Щ Ы Э Ю Я
Войти:  Facebook Google Twitter Vk Yandex Mail.ru



Halestorm - Heres To Us - аккорды

 » 
 » 
Heres To Us
Онлайн-интенсив по вокалу
  • аккорды, текст
  • gtp-табы
Тональность: 
0
Масштаб: 
100%
Прокрутка: 
0
Проще!
Аппликатуры
Нотный режим
Heres To Us
Halestorm
[ Предположительная тональность: C ]

Here's to Us - Halestorm

NOTE: THIS IS THE ONE AND ONLY CORRECT WAY TO PLAY THIS SONG. LZZY HALE AND
JOE HOTTINGER OF HALESTORM HAVE A VIDEO UP ON THEIR OFFICIAL CHANNEL SHOWING
HOW TO PLAY THIS SONG. THIS IS WHERE I LEARNED IT FROM. DIRECTLY FROM THE SOURCE.
THIS VERSION ALSO INCLUDES THE SOLO AFTER THE BRIDGE FEATURED IN THE VERSION WITH
SLASH AS A GUEST.
ENJOY!

Intro C F Am G (2x)

C                F               Am                G
We could just go home right now, or maybe we could stick around
    C             F         Am   G
For just one more drink, oh yeah
C                F      Am                    G
Get another bottle out, let's shoot the shit, sit back down
    C             F          Am  G
For just one more drink, oh yeah

          C             G             Am                   F
Here's to us, here's to love, all the times that we fucked up
          C             G                 Am                 F
Here's to you, fill the glass, 'cause the last few days have kicked my ass
   C              G          Am        F                C  G          Am F
So let's give 'em hell, wish everybody well. Here's to us...here's to us

      C                  F            Am             G
We've stuck it out this far together, put our dreams through the shredder
      C            F          Am     G
Let's toast 'cause things got better
    C                F
And everything could change like that
    Am                  G              C       F     Am      G
And all these years go by so fast, but nothing lasts forever

          C             G             Am                   F
Here's to us, here's to love, all the times that we messed up
          C             G                 Am                   F
Here's to you, fill the glass, 'cause the last few nights have kicked my ass
   C              G          Am        F
If they give you hell, tell 'em go fuck themselves.
           C  G          Am F
Here's to us...here's to us

          D                             F
Here's to all that we've kissed, and to all that we've missed
       C                        G
To the biggest mistakes that we just wouldn't trade
   F
To us breakin' out, without us breakin' down
   C                     G                C
To whatever's coming our way, here's to us!

SOLO C G Am F C G Am F

E|----------------------------------------------------------11---9--11--11--9|
B|---------------9-----7--6-------6-7-8-9------9---11---12-------------------|
G|-----6----6--8---8--8-----6---8---------8--6-------------------------------|
D|6--8---8-------------------------------------------------------------------|
A|---------------------------------------------------------------------------|
E|---------------------------------------------------------------------------|

E|14--14--13--14--13---------------------------------------------------------|
B|--------------------14-----------------------------------------------------|
G|-----------------------13--11--10--11--------------------------------------|
D|--------------------------------------11--10-------------------------------|
A|---------------------------------------------11--9--11---11---11-----------|
E|------------------------------------------------------------------9---9---9|

          C             G             Am                   F
Here's to us, here's to love, all the times that we fucked up
          C             G                 Am                 F
Here's to you, fill the glass, 'cause the last few days have kicked my ass
   C              G          Am        F                C  G          Am F
So let's give 'em hell, wish everybody well.
          C             G             Am                   F
Here's to us, here's to love, all the times that we messed up
          C             G                 Am                   F
Here's to you, fill the glass, 'cause the last few nights have kicked my ass
   C             G     Am               F  (no chord)
If they give you hell, tell 'em go fuck themselves (go fuck themselves)
          C             G             Am            F
Here's to us (here's to us) Here's to us (here's to us)

          C             G          Am        F
Here's to us, here's to love, wish everybody well
          C             G               Am F   (no chord)
Here's to us, here's to love, here's to us...here's to us



DURING THE CHORUS, LEAD GUITAR PLAYS THIS:
  C       G       Am      F
|-0--0-xx-3--3-xx-0--0-xx-1----------|
|-1--1-xx-3--3-xx-1--1-xx-1----------|
|-0--0-xx-0--0-xx-2--2-xx-2----------|
|-2--2-xx-0--0-xx-2--2-xx-3----------|
|-3--3-xx-2--3-xx------xx-3----3h5p3-|
|-x--x-xx-3--3-xx------xx-1-3h5------|
  C       G       Am      F
|-0--0-xx-3--3-xx-0--0-xx-1----------|
|-1--1-xx-3--3-xx-1--1-xx-1----------|
|-0--0-xx-0--0-xx-2--2-xx-2----------|
|-2--2-xx-0--0-xx-2--2-xx-3-3p20-----|
|-3--3-xx-2--3-xx------xx-3-----0h3--|
|-x--x-xx-3--3-xx------xx-1----------|
  C       G       Am      F
|-0--0-0x-3-3-3xx-0-0-0xx-1-1-1-8---8---7---7---8---8---8|
|-1--1-1x-3-3-3xx-1-1-1xx-1-1-1---8---8---8---8---8---8--|
|-0--0-0x-0-0-0xx-2-2-2xx-2-2-2--------------------------|
|-2--2-2x-0-0-0xx-2-2-2xx-3-3-3--------------------------|
|-3--3-3x-2-2-2xx------xx-3-3-3--------------------------|
|-x--x-xx-3-3-3xx------xx-1-1-1--------------------------|

Halestorm - Heres To Us - ноты

(включить)
Другие композиции этого автора:
Другие материалы по этой песне:

https://primanota.ru/halestorm/heres-to-us-chords.htm

Привет, гитарист!

Тебе подарок от сайта PrimaNota.ru

Забрать подарок
ВАМ ПОДАРКИ ОТ ПРОЕКТА
"ГИТАРНАЯ РЕВОЛЮЦИЯ"