Войти:  Facebook Google Twitter Vk Yandex Mail.ru
PrimaNota.ru - самый крупный в мире бесплатный архив песенных текстов, аккордов, табулатур и нот


Halestorm - Black Vultures - табы


Guitar 1 (The bend is 1/2)
e|---------------------------------------|---------------------------------------|
B|---------------------------------------|---------------------------------------|
G|---------------------------------------|---------------------------------------|
D|---------------------------------------|---------------------------------------|
A|--3-5-5brv-----3-5-5brv-----3-5-5brv---|--3-5-5brv-----6---------3-------------|
D|--3-5-5brv-----3-5-5brv-----3-5-5brv---|--3-5-5brv-----6---------3-------------|

e|---------------------------------------|---------------------------------------|
B|---------------------------------------|---------------------------------------|
G|---------------------------------------|---------------------------------------|
D|---------------------------------------|---------------------------------------|
A|--3-5-5brv-----3-5-5brv-----3-5-5brv---|--3-5-5brv-----6----6----3----3--------|
D|--3-5-5brv-----3-5-5brv-----3-5-5brv---|--3-5-5brv-----6----6----3----3--------|

  Guitar 2
e|--/15----------------------------------|----------------20--------16-----------|
B|---------------16br--------------------|--14br---------------------------------|
G|--/12----------20br--------------------|--18br----------17--------13-----------|
D|---------------------------------------|---------------------------------------|
A|---------------------------------------|---------------------------------------|
D|---------------------------------------|---------------------------------------|

e|--/15----------------------------------|----------------20---20---16---16------|
B|---------------16br--------------------|--14br---------------------------------|
G|--/12----------20br--------------------|--18br----------17---17---13---13------|
D|---------------------------------------|---------------------------------------|
A|---------------------------------------|---------------------------------------|
D|---------------------------------------|---------------------------------------|

 [Verse]

  Clean guitar
e|---------------------------------------|
B|-----3--------4--------1---------------|
G|---0--------0--------0-----------------|
D|-0--------0--------0-------------------|
A|---------------------------------------|
D|---------------------------------------| x4

e|---------------------------------------|
B|---------------------------------------|
G|---0--------0--------0-----------------|
D|-0--------0--------0---------1-0-------|
A|---------------------------------------|
D|---------------------------------------|

 [Chorus]

  Guitar 1
e|---------------------------------|---------------------------------|
B|---------------------------------|---------------------------------|
G|---------------------------------|---------------------------------|
D|---------------------------------|---------------------------------|
A|-5-5-5-5-5-5-5-5-3-3-3-3-3-3-3-3-|-1-1-1-1-1-1-1-1-0-0-0-0-0-0-0-0-|
D|-5-5-5-5-5-5-5-5-3-3-3-3-3-3-3-3-|-1-1-1-1-1-1-1-1-0-0-0-0-0-0-0-0-| 2x

  Guitar 2
e|-------------------------------------------------|--------------------------------------------------|
B|-------------------------------------------------|--------------------------------------------------|
G|-------------------------------------------------|--------------------------------------------------|
D|-12-12-12-12-12-12-12-12-12-12-12-12-12-12-12-12-|-12-12-12-12-12-12-12-12-10-10-10-10-10-10-10-10--|
A|-------------------------------------------------|--------------------------------------------------|
D|-10-10-10-10-10-10-10-10-10-10-10-10-10-10-10-10-|-10-10-10-10-10-10-10-10--8--8--8--8--8--8--8--8--| x2

e|--------------------------------|---------------------------------|
B|--------------------------------|---------------------------------|
G|--------------------------------|---------------------------------|
D|--------------------------------|---------------------------------|
A|-1-------------3----------------|-5-5-5---------5-5----5-5----5--|
D|-1-------------3----------------|-5-5-5---------5-5----5-5----5--|

e|--------------------------------|---------------------------------|
B|--------------------------------|---------------------------------|
G|--------------------------------|---------------------------------|
D|--------------------------------|------------------5-5-5-5-3-3-3--|
A|-1-------------3----------------|-5-5-5----------0-3-3-3-3-1-1-1--|
D|-1-------------3----------------|-5-5-5----------0----------------|

 [Interlude]

  Guitar 1 
e|---------------------------------------|---------------------------------------|
B|---------------------------------------|---------------------------------------|
G|---------------------------------------|---------------------------------------|
D|---------------------------------------|---------------------------------------|
A|--3-5-5brv-----3-5-5brv-----3-5-5brv---|--3-5-5brv-----6---------3-------------|
D|--3-5-5brv-----3-5-5brv-----3-5-5brv---|--3-5-5brv-----6---------3-------------|

e|---------------------------------------|---------------------------------------|
B|---------------------------------------|---------------------------------------|
G|---------------------------------------|---------------------------------------|
D|---------------------------------------|---------------------------------------|
A|--3-5-5brv-----3-5-5brv-----3-5-5brv---|--3-5-5brv-----6----6----3----3--------|
D|--3-5-5brv-----3-5-5brv-----3-5-5brv---|--3-5-5brv-----6----6----3----3--------|

  Guitar 2
e|--/15----------------------------------|----------------20--------16-----------|
B|---------------16br--------------------|--14br---------------------------------|
G|--/12----------20br--------------------|--18br----------17--------13-----------|
D|---------------------------------------|---------------------------------------|
A|---------------------------------------|---------------------------------------|
D|---------------------------------------|---------------------------------------|

e|--/15----------------------------------|----------------20---20---16---16------|
B|---------------16br--------------------|--14br---------------------------------|
G|--/12----------20br--------------------|--18br----------17---17---13---13------|
D|---------------------------------------|---------------------------------------|
A|---------------------------------------|---------------------------------------|
D|---------------------------------------|---------------------------------------|

 [Verse]

  Clean guitar
e|---------------------------------------|
B|-----3--------4--------1---------------|
G|---0--------0--------0-----------------|
D|-0--------0--------0-------------------|
A|---------------------------------------|
D|---------------------------------------| x4

e|---------------------------------------|
B|---------------------------------------|
G|---0--------0--------0-----------------|
D|-0--------0--------0---------1-0-------|
A|---------------------------------------|
D|---------------------------------------|

 [Chorus]

  Guitar 1
e|---------------------------------|---------------------------------|
B|---------------------------------|---------------------------------|
G|---------------------------------|---------------------------------|
D|---------------------------------|---------------------------------|
A|-5-5-5-5-5-5-5-5-3-3-3-3-3-3-3-3-|-1-1-1-1-1-1-1-1-0-0-0-0-0-0-0-0-|
D|-5-5-5-5-5-5-5-5-3-3-3-3-3-3-3-3-|-1-1-1-1-1-1-1-1-0-0-0-0-0-0-0-0-| 2x

  Guitar 2
e|-------------------------------------------------|--------------------------------------------------|
B|-------------------------------------------------|--------------------------------------------------|
G|-------------------------------------------------|--------------------------------------------------|
D|-12-12-12-12-12-12-12-12-12-12-12-12-12-12-12-12-|-12-12-12-12-12-12-12-12-10-10-10-10-10-10-10-10--|
A|-------------------------------------------------|--------------------------------------------------|
D|-10-10-10-10-10-10-10-10-10-10-10-10-10-10-10-10-|-10-10-10-10-10-10-10-10--8--8--8--8--8--8--8--8--| x2

e|--------------------------------|---------------------------------|
B|--------------------------------|---------------------------------|
G|--------------------------------|---------------------------------|
D|--------------------------------|---------------------------------|
A|-1-------------3----------------|-5-5-5---------5-5----5-5----5--|
D|-1-------------3----------------|-5-5-5---------5-5----5-5----5--|

e|--------------------------------|---------------------------------|
B|--------------------------------|---------------------------------|
G|--------------------------------|---------------------------------|
D|--------------------------------|---------------------------------|
A|-1-------------3----------------|-5-5-5---------5---3---5---1-----|
D|-1-------------3----------------|-5-5-5---------5---3---5---1-----|

 [Bridge]

e|---------------------------------------|---------------------------------------|
B|---------------------------------------|---------------------------------------|
G|---------------------------------------|---------------------------------------|
D|---------------------------------------|---------------------------------------|
A|--1-1-1-1------1-1-1-1------1-1-1-1----|--1-1-1-1------6----6----3----3--------|
D|--1-1-1-1------1-1-1-1------1-1-1-1----|--1-1-1-1------6----6----3----3--------| 4x

e|-------------------------|
B|-------------------------|
G|-------------------------|
D|-------------------------|
A|-------------------------|
D|-0-0----0----0-0----0----|
   * *    *    * *    *

 [Interlude]

  Guitar 1
e|---------------------------|---------------------------|
B|---------------------------|---------------------------|
G|---------------------------|---------------------------|
D|---------------------------|---------------------------|
A|---------------------------|---------------------------|
D|-5------------3------------|-1------------0------------|

e|---------------------------|---------------------------|
B|---------------------------|---------------------------|
G|---------------------------|---------------------------|
D|---------------------------|---------------------------|
A|---------------------------|---------------------------|
D|-5------------3------------|-1-------------------------|

 Guitar 2
e|-15----15----17----17------|-18----18----20-18-17----|
B|----15----15----15----15---|----15----15----------15-|
G|---------------------------|-------------------------|
D|---------------------------|-------------------------|
A|---------------------------|-------------------------|
D|---------------------------|-------------------------|

e|-15----15----17----17------|-18----18----20----------|
B|----15----15----15----15---|----15----15-------------|
G|---------------------------|-------------------------|
D|---------------------------|-------------------------|
A|---------------------------|-------------------------|
D|---------------------------|-------------------------|

 [Chorus]

e|--------------------------------|---------------------------------|
B|--------------------------------|---------------------------------|
G|--------------------------------|---------------------------------|
D|--------------------------------|---------------------------------|
A|-1-------------3----------------|-5-5-5---------5-5----5-5----5--|
D|-1-------------3----------------|-5-5-5---------5-5----5-5----5--|

e|--------------------------------|---------------------------------|
B|--------------------------------|---------------------------------|
G|--------------------------------|---------------------------------|
D|--------------------------------|---------------------------------|
A|-1-------------3----------------|-5-5-5---------5---3---5---1-----|
D|-1-------------3----------------|-5-5-5---------5---3---5---1-----|

e|---------------------------------|---------------------------------|
B|---------------------------------|---------------------------------|
G|---------------------------------|---------------------------------|
D|---------------------------------|---------------------------------|
A|-1-1-1-1-1-1-1-1-3-3-3-3-3-3-3-3-|-5-5-5-5-5-5-5-5-5-5-5-5-5-5-5-5-|
D|-1-1-1-1-1-1-1-1-3-3-3-3-3-3-3-3-|-5-5-5-5-5-5-5-5-5-5-5-5-5-5-5-5-| 4x

 

  Guitar 1 
e|---------------------------------------|---------------------------------------|
B|---------------------------------------|---------------------------------------|
G|---------------------------------------|---------------------------------------|
D|---------------------------------------|---------------------------------------|
A|--3-5-5brv-----3-5-5brv-----3-5-5brv---|--3-5-5brv------6---------3------------|
D|--3-5-5brv-----3-5-5brv-----3-5-5brv---|--3-5-5brv------6---------3------------| 2x

  Guitar 2
e|--/15----------------------------------|----------------20--------16-----------|
B|---------------16br--------------------|--14br---------------------------------|
G|--/12----------20br--------------------|--18br----------17--------13-----------|
D|---------------------------------------|---------------------------------------|
A|---------------------------------------|---------------------------------------|
D|---------------------------------------|---------------------------------------| 2x


************************************

|    slide down
| b   bend
| r   release
| v   vibrato
| *  palm mute

************************************

Black vultures circling the 
Black vultures circling the
Black vultures circling the
Black vultures circling the sky
Feels like the end of the world
But it's only the beginning of it all
Forget the things that you've heard
Been a survivor since I began to crawl
I'm falling down but I'm not out
The devils at my door
I don't give in, I don't give up
I won't ever let it break me
I'm on fire, I'm a fighter
I'll forever be the last one standing
Black vultures circling the sky
Pick at the pieces
Scavengers wait for me to die
But I'm not defeated
I'm on the edge of the war
I'm holding on and hanging by a thread
I Am the eye of the storm
And you haven't seen the last of me just yet
I'm falling down but I'm not out
I'm coming back for more
I don't give in, I don't give up
I won't ever let it break me
I'm on fire, I'm a fighter
I'll forever be the last one standing
Black vultures circling the sky
Pick at the pieces
Scavengers wait for me to die
But I'm not defeated
I'm still alive
I'm still alive
I don't give in, I don't give up
I won't ever let it break me
I'm on fire, I'm a fighter
I'll forever be the last one
Black vultures circling the sky
Pick at the pieces
Scavengers wait for me to die
But I'm not defeated
Black vultures circling the sky
oh, you all can wait for me to die
Black vultures circling the
Black vultures circling the
Black vultures circling the
Black vultures circling the sky
Другие композиции этого автора:
Другие материалы по этой песне:
  • Аккорды, текст

https://primanota.ru/halestorm/black-vultures-chords.htm

Привет, гитарист!

Тебе подарок от сайта PrimaNota.ru

Забрать подарок
ВАМ ПОДАРКИ ОТ ПРОЕКТА
"ГИТАРНАЯ РЕВОЛЮЦИЯ"