Войти:  Facebook Google Twitter Vk Yandex Mail.ru
PrimaNota.ru - самый крупный в мире бесплатный архив песенных текстов, аккордов, табулатур и нот


Hairless Mary - Sara - бас-таба, видео

Печатать
Просмотров: 211
Лучшая metal-группа Петербурга

Sara


Band-Hairless Mary
Song-Sara 
CD-Tequila Gunpowder 
Albino Apache Records

Standard Tuning 5-String (B,E,A,D,G)

|-3-| -Triplet

Intro/verse/post-chorus

G:|----7--------------5--------------|
D:|----------10---------5------------|
A:|-5----5/8----8\-3-----------------|
E:|-----------------------5--33-0----|
B:|----------------------------------|

G:|----7--------------5--------------|
D:|----------10---------5------------|
A:|-5----5/8----8\-3-----------------|
E:|-----------------------5/----0----|
B:|--------------------------88------|

Chorus
                    |-3-| 
G:|---------------------------------|
D:|---------------------------------|
A:|-5-55----------------------------|
E:|------5--5-5-5--8-888--3--3-3-3--|
B:|---------------------------------|

                    |-3-| 
G:|---------------------------------|
D:|---------------------------------|
A:|-5-55----------------------------|
E:|------5--5-5-5--8-888--3--3-2-0--|
B:|---------------------------------|

Verse 2
Chorus 2
Post-chorus 2
Verse 3
Chorus 3
Post-chorus 3

Bridge w/slight variations

G:|---------------------------|
D:|---9---------------------9-|
A:|--7-7---1010----12-----99--|
E:|------8-----8-10--10-7-----|
                          |-3-|
G:|-----------------------------|
D:|---9--------------12--9-999--|
A:|--7-7---1010----12---------9-|
E:|------8-----8-10----7--------|

G:|--------------------------|
D:|---9----------------------|
A:|--7-7---1010----12-----9--|
E:|------8-----8-10--10-7--7-|

G:|--------------------------|
D:|---9--------------------9-|
A:|--7-7---1010----12-----9--|
E:|------8-----8-10--10-7----|

G:|--------------------------|
D:|---9-------------------9--|
A:|--7-7---1010----12----9-9-|
E:|------8-----8-10--10-7---7|

Ending

G:|----9---|
D:|--------|
A:|-7------|
E:|-------0|


     
Добавлено: 05.06.2013
Другие материалы по этой песне:

Страница создана 01.07.2012
https://primanota.ru/hairless-mary/sara-chords.htm

Привет, гитарист!

Тебе подарок от сайта PrimaNota.ru

Забрать подарок
ВАМ ПОДАРКИ ОТ ПРОЕКТА
"ГИТАРНАЯ РЕВОЛЮЦИЯ"