Войти:  Facebook Google Twitter Vk Yandex Mail.ru
PrimaNota.ru - самый крупный в мире бесплатный архив песенных текстов, аккордов, табулатур и нот


Greeeen - Unity - табы

Печатать
Лучшая metal-группа Петербурга

Unity

  • аккорды, текст

Авторы музыки: GReeeeN
Авторы текста: GReeeeN
So, I was bored and decided to tab this song out. It's pretty epic and simple. This tab
bare bones--nothing too special, just the right notes (or pretty close to the right
Don't worry about how many times I put a number... I tried to get rhythm right, which 
things confusing.

INTRO

RhythmGuitar
e|---------------------------------------|
b|---------------------------------------|
g|-77-7-77-7-----------------------------|
d|-77-7-77-7-77-7-77-7-99-9-99-9-55-5-55-| for intro, repeat twice
a|-55-5-55-5-77-7-77-7-99-9-99-9-55-5-55-|
E|-----------55-5-55-5-77-7-77-7-33-3-33-|

LeadGuitar
e|----0~---|
b|---3--2~-|
g|--2------|
d|-0-------|
a|---------|
E|---------|

VERSES

e|---------------------------------------|
b|---------------------------------------|
g|-77-7-77-7-----------------------------|
d|-77-7-77-7-77-7-77-7-99-9-99-9-55-5-55-| repeat as necessary
a|-55-5-55-5-77-7-77-7-99-9-99-9-55-5-55-|
E|-----------55-5-55-5-77-7-77-7-33-3-33-|


PRE CHORUS

e|-------------------------------------------------------|
b|-------------------------------------------------------|
g|----------44-4-44-4-44-4-44----------------------------|
d|-44444444-44-4-44-4-44-4-44-44444444-55555555-77777777-|
a|-44444444-22-2-22-2-22-2-22-44444444-55555555-77777777-|
E|-22222222-------------------22222222-33333333-55555555-|

CHORUS

e|-----------------------------------------|
b|-----------------------------------------|
g|---------------------77-7-77-7-----------|
d|-55-5-55-5-77-7-77-7-77-7-77-7-44-4-44-4-|  repeat as necessary, then:
a|-55-5-55-5-77-7-77-7-55-5-55-5-44-4-44-4-|
E|-33-3-33-3-55-5-55-5-----------22-2-22-2-|

e|---------------------------------------|
b|---------------------------------------|
g|---------------------------------------|
d|-55-5-55-5-77-7-77-7-99-9-99-9-99-9-99-|
a|-55-5-55-5-77-7-77-7-99-9-99-9-99-9-99-|
E|-33-3-33-3-55-5-55-5-77-7-77-7-77-7-77-|


INTRO
VERSE
PRECHORUS
CHORUS
VERSE
PRECHORUS
CHORUS
VERSE
CHORUS
INTRO

If you have any corrections or would like to recommend more Japanese songs... I'm more
willing to listen: fakiesrcool@gmail.com   
Другие композиции этого автора:
Другие материалы по этой песне:
  • Аккорды, текст

https://primanota.ru/greeeen/unity-chords.htm

Привет, гитарист!

Тебе подарок от сайта PrimaNota.ru

Забрать подарок
ВАМ ПОДАРКИ ОТ ПРОЕКТА
"ГИТАРНАЯ РЕВОЛЮЦИЯ"