Войти:  Facebook Google Twitter Vk Yandex Mail.ru
PrimaNota.ru - самый крупный в мире бесплатный архив песенных текстов, аккордов, табулатур и нот


Gorillaz - The Sounder - текст песни, таба, видео

Печатать
Просмотров: 245
Лучшая metal-группа Петербурга

The Sounder

  • аккорды и текст

-------------------------------------------------------------------------------
                             The Sounder by the Gorillaz
-------------------------------------------------------------------------------

Tabbed by: Brands99
Tuning: Standard 

^ = bend

          [Intro]
e|---------------------------------|
B|---------------------------------|
G|-----14-14-----14-14-14-12-------|
D|--12--------12-------------------|  [x9]
A|---------------------------------|
E|---------------------------------|

e|---------------------------------|
B|---------------------------------|
G|-----14-14-----14-14-14-12-------|
D|--12--------12-------------------|  [Played in the background throughout the song]
A|---------------------------------|
E|---------------------------------|


*Bend the 17 fret up to the 18 fret
Palm mute these strings so that you can get a clear stop instead of the notes ringing out
e|---------------------------------------------------------------------------|
B|---------------------------------------------------------------------------|
G|---------------------------------------------------------------------------|
D|--17-17^--15-17-17^--15-17-17^--15-17^-17^-17^-17^-------------------------|
A|---------------------------------------------------------------------------|
E|---------------------------------------------------------------------------|



Please leave a comment or any suggestions and don't forget to rate this tab
Добавлено: 05.08.2014
Другие материалы по этой песне:
  • Аккорды и текст

Страница создана 03.03.2012
https://primanota.ru/gorillaz/the-sounder-chords.htm

Привет, гитарист!

Тебе подарок от сайта PrimaNota.ru

Забрать подарок
ВАМ ПОДАРКИ ОТ ПРОЕКТА
"ГИТАРНАЯ РЕВОЛЮЦИЯ"