Войти:  Facebook Google Twitter Vk Yandex Mail.ru
PrimaNota.ru - самый крупный в мире бесплатный архив песенных текстов, аккордов, табулатур и нот


Gorillaz - Rockit - текст песни, бас-таба, видео

Печатать
Просмотров: 422
Лучшая metal-группа Петербурга

Rockit

  • аккорды и текст

Авторы музыки: Gorillaz
Авторы текста: Gorillaz
[Main Thing]
G------------------------------------|
D------------------------------------|
A------------------------------------| x2
E--3-3-3-3-3-1----1-3-3-3-3-1--------|

G------------------------------------|
D------------------------------------|
A--1--1-1---11111--------------------|
E-----------------3------------------|

G------------------------------------|
D------------------------------------|
A------------------------------------|
E-3-3-3-3-3-1----1-3-3-3-3-1---------|

[PRE VERSE]
G------------------------------------|
D-3--3--3--3--3----------------------|
A------------------------------------|
E------------------------------------|

CHORUS
G------------------------------------|
D------------------------------------|
A------------------------------------| x3
E--3-3-3-3-3-1----1-3-3-3-3-1--------|

^^^^ REPEAT FOR REST OF SONG ^^^^^

****It's basically like that for the remainder of the song. :) The patterns occasionally 
but it's easy.! ****

Bass Tab by
HOLLI!!!!
Добавлено: 18.04.2012
Другие материалы по этой песне:
  • Аккорды и текст

Страница создана 13.04.2012
https://primanota.ru/gorillaz/rockit-chords.htm

Привет, гитарист!

Тебе подарок от сайта PrimaNota.ru

Забрать подарок
ВАМ ПОДАРКИ ОТ ПРОЕКТА
"ГИТАРНАЯ РЕВОЛЮЦИЯ"