Войти:  Facebook Google Twitter Vk Yandex Mail.ru
PrimaNota.ru - самый крупный в мире бесплатный архив песенных текстов, аккордов, табулатур и нот


Godless Wicked Creeps - Bad Brains - табы, видео

Печатать
Лучшая metal-группа Петербурга

Bad Brains

  • аккорды и текст

Artist: Godless Wicked Creeps
Song title: Bad Brains
as it appears on: Smile

tabbed by Fabian Rost (frostus@gmx.net)

Inro and Main Riff:
                                                           
E||--------------------------|
B||--------------------------|
G||--------------------------|
D||--------4-----------5--4--| play 3 times
A||--5--5-----5--3--3--------|
E||--------------------------|


E||--------------------------|
B||--------------------------|
G||--------------------------|
D||--------4--5--7--7--5--4--|
A||--5--5--------------------|
E||--------------------------|

        
Добавлено: 24.08.2013
Другие композиции этого автора:
Другие материалы по этой песне:
  • Аккорды и текст

Страница создана 24.08.2013
https://primanota.ru/godless-wicked-creeps/bad-brains-chords.htm

Привет, гитарист!

Тебе подарок от сайта PrimaNota.ru

Забрать подарок
ВАМ ПОДАРКИ ОТ ПРОЕКТА
"ГИТАРНАЯ РЕВОЛЮЦИЯ"