Войти:  Facebook Google Twitter Vk Yandex Mail.ru
PrimaNota.ru - самый крупный в мире бесплатный архив песенных текстов, аккордов, табулатур и нот


Glen Campbell - My Girl - аккорды и текст, бас-таба, видео

Печатать
Просмотров: 195
Лучшая metal-группа Петербурга

My Girl

  • аккорды и текст
Тональность: 
0
Проще! Аппликатуры

Авторы музыки: Ronald White, Smokey Robinson
Авторы текста: Smokey Robinson
My Girl
Glen Campbell
My Girl
Glen Campbell
1975 Album Rhinestone Cowboy


Intro  A (Bass notes)

E--------------------|
B--------------------|
G-----------------2--|
D-----------2--4-----|  Repeat 4X
A--0--2--4-----------|
E--------------------|  

Verse 1

A                 D             A   (Into 1X)
I've got sunshine   on a cloudy day
                           D
And when it's cold outside   
                      A   (Into 1X)
I've got the month of May
A    Bm    D      E
I... guess you'll say
A        Bm      D         E
What can make me feel this way
A
My girl  (my girl)
A7M           Bm          E
Talkin' 'bout my girl    (my girl)

Verse 2

         A       D                   A   (Into 1X)
I've got so much honey the bees envy me
D          A            D
I've got a sweeter song 
                      A     (Into 1X)
Than the birds in the trees
A   Bm    D      E
I.. guess you'll say
A        Bm      D         E
What can make me feel this way
          A                  A7M    
Well it's my girl   (talkin' my girl) 
              Bm         E
Talkin' 'bout my girl   (my girl)

Riff  (Bass notes)  

E--------------------|        E--------------------|
B--------------------|        B-----------------3--|
G-----------------2--|3X Then G-----------2--4-----|
D-----------2--4-----|        D--0--2--4-----------|
A--0--2--4-----------|        A--------------------|
E--------------------|        E--------------------|

                                             Hey hey hey

E--------------------|-------------------|
B--------------------|----------------3--|
G-----------------2--|----------2--4-----|
D-----------2--4-----|-0--2--4-----------|
A--0--2--4-----------|-------------------|
E--------------------|-------------------| 
                                           D   Bm7  E
                                       Hey hey hey
         C#m     F#
Mmmmmm   Mmmmmm

Verse 3

        B       E                  B     E
I don't need no money   fortune or fame
         B              E                B
I've got all the riches baby one man can claim
    B   C#m   E      F#      
But I   guess you'll say
B        C#m     E         F#
What can make me feel this way
          B
Well it's my girl (my girl)
                             C#m
Well I'm talkin' 'bout my my my girl 
 E      B F# C#m
 My girl
(my girl)


Outro

             B
I've the got sunshine 

Sunshine on a cloudy day
     C#m
With my girl
 E       B F#  
 My girl
(my girl)

C#m      B
And I've even got.... the month of May
     C#m
With my girl  
 E       B F# C#m
 My girl
(my girl)
         B
I've got so much honey the bees envy me (fade quickly)


flyinglibra51
God Bless Glen Travis Campbell
Добавлено: 23.12.2017
Другие материалы по этой песне:
  • Аккорды и текст

Страница создана 24.10.2017
https://primanota.ru/glen-campbell/my-girl-chords.htm

Привет, гитарист!

Тебе подарок от сайта PrimaNota.ru

Забрать подарок
ВАМ ПОДАРКИ ОТ ПРОЕКТА
"ГИТАРНАЯ РЕВОЛЮЦИЯ"