Войти:  Facebook Google Twitter Vk Yandex Mail.ru
PrimaNota.ru - самый крупный в мире бесплатный архив песенных текстов, аккордов, табулатур и нот


Gian Marco - La Flor De La Canela - табы

Печатать
Лучшая metal-группа Петербурга

La Flor De La Canela

  • аккорды, текст

"La flor de la canela"
Autora: Chabuca Granda
Intérprete: Gian Marco
Tablatura: elhapps

                E                        Am

e|-----------7--10----9-10-11--12-----7--8-10--12\---|
B|--------9-----12---11-12-10--9------9-10-12--13\---|
G|-9-8-9---------------------------------------------|
D|---------------------------------------------------|
A|---------------------------------------------------|
E|---------------------------------------------------|

                E                             Am

e|-----------7--10----9-10-11--12---8h10p8--7--8-10--12\---|
B|--------9-----12---11-12-10--9----10------9-10-12--13\---|
G|-9-8-9---------------------------------------------------|
D|---------------------------------------------------------|
A|---------------------------------------------------------|
E|---------------------------------------------------------|

                A7                        Dm          G7

e|--------------------------------------------------------|
B|----------5--5/8--8h10p8--7-8--6h8p6--5-6-8-10----------|
G|--------6----6/9--9-------8-9--7------6-7-9-10----------|
D|-7-6-7--------------------------------------------------|
A|--------------------------------------------------------|
E|--------------------------------------------------------|

            C       E         Am          Am    G   F  E
 
e|----------------------------------------5--3h5p3--1--0---|
B|--6--4--4/5----1-1/3--1-0--2-1---------------------------|
G|--7--4--4/5----2-2/4--2-1--4-2---------------------------|
D|---------------------------------------------------------|
A|---------------------------------------------------------|
E|---------------------------------------------------------|



************************************

| h  Hammer-on
| p  Pull-off
| /  Slide up
| \  Slide down

************************************   
https://primanota.ru/gian-marco/la-flor-de-la-canela-chords.htm

Привет, гитарист!

Тебе подарок от сайта PrimaNota.ru

Забрать подарок
ВАМ ПОДАРКИ ОТ ПРОЕКТА
"ГИТАРНАЯ РЕВОЛЮЦИЯ"