Войти:  Facebook Google Twitter Vk Yandex Mail.ru
PrimaNota.ru - самый крупный в мире бесплатный архив песенных текстов, аккордов, табулатур и нот


Ghost - Zenith - табы

Печатать
ViraMusic 2019 в Петербурге 4 апреля 2019! Скидка 10%!

Zenith


Zenith

Standard Tuning, but tuned down one whole step

|: = repeat sign
:| = repeat sign
^ = hammer-on/pull-off
/ = slide up
\ = slide down
() = harmonics
x = string mute
^b = bend
qr = Quick Rest

pm
== = Palm Mute



[Verse]
d||-----------------------------------------------------------------------------
A||:----------------------------------------------------------------------------
F||-------0-----0---0------0-----0---0-----0-----0---0-----0-----0-----0--------
C||-----0-----0----------0-----0---------0-----0---------0-----0----------------
G||:---------------------------------------------------1-----3-----3------------
D||---3-----3-----3----1-----1-----1---3-----3-----3----------------------------


[Verse]
d|----------------------------------------------------------------------------||
A|---------------------------------------------------------------------------:||
F|--------0-----0---0------0-----0---0-----0-----0---0-----0-----0----0-------||
C|------0-----0----------0-----0---------0-----0---------0-----0--------------||
G|-----------------------------------------------------1-----0------0--------:||
D|----3-----3-----3----1-----1-----1---3-----3-----3--------------------------||



[Pre-Chorus]
"now and for always... a perpetual rise... 
a fall of illusion.... your zenith fades into eternity..."
d|--------------------------------------------------------------------
A|---let-ring---------------------------------------------------------
F|---0----------------------------------------------------------------
C|---0----------------------------------------------------------------
G|---x----------------------------------------------------------------
D|---3----------------------------------------------------------------



[Chorus]
d|----------------------------------------------------------------------
A|----------------------------------------------------------------------
F|----------------------------------------------------------------------
C|---8\5---5-pm-------7\5---5-pm-------8\5---5-pm-------7\5-pm----7-8---
G|---x-x-=-5-=======--x-x-=-5-=======--x-x-=-5-=======--x-x-=====-7-8---
D|---6\3-3-3-3-3-3-3--5\3-3-3-3-3-3-3--6\3-3-3-3-3-3-3--5\3-3-3-3-5-6---


[Chorus]
d|----------------------------------------------------------------------
A|----------------------------------------------------------------------
F|----------------------------------------------------------------------
C|---8\5---5-pm-------7\5---5-pm-------8\5---5-pm-------7\5-pm----7-8---
G|---x-x-=-5-=======--x-x-=-5-=======--x-x-=-5-=======--x-x-=====-7-8---
D|---6\3-3-3-3-3-3-3--5\3-3-3-3-3-3-3--6\3-3-3-3-3-3-3--5\3-3-3-3-5-6---


[Chorus]
d|----------------------------------------------------------------------
A|----------------------------------------------------------------------
F|----------------------------------------------------------------------
C|---8\5---5-pm-------7\5---5-pm-------9\5---5-pm-------7\5-pm----5-3---
G|---x-x-=-5-=======--x-x-=-5-=======--x-x-=-5-=======--x-x-=====-5-3---
D|---6\3-3-3-3-3-3-3--5\3-3-3-3-3-3-3--7\3-3-3-3-3-3-3--5\3-3-3-3-3-1---


[Chorus]
d|--------------------------------------------------------------------
A|--------------------------------------------------------------------
F|--------------------------------------5-pm--5-pm--------------------
C|---8\5---5-pm-------7\5---5-pm--------5-===-5-=======---------------
G|---x-x-=-5-=======--x-x-=-5-=======---3-3-3-3-3-3-3-3---------------
D|---6\3-3-3-3-3-3-3--5\3-3-3-3-3-3-3---------------------------------



[Verse]
d||-----------------------------------------------------------------------------
A||:----------------------------------------------------------------------------
F||-------0-----0---0------0-----0---0-----0-----0---0-----0-----0-----0--------
C||-----0-----0----------0-----0---------0-----0---------0-----0----------------
G||:---------------------------------------------------1-----3-----3------------
D||---3-----3-----3----1-----1-----1---3-----3-----3----------------------------


[Verse]
d|----------------------------------------------------------------------------||
A|---------------------------------------------------------------------------:||
F|--------0-----0---0------0-----0---0-----0-----0---0-----0-----0----0-------||
C|------0-----0----------0-----0---------0-----0---------0-----0--------------||
G|-----------------------------------------------------1-----0------0--------:||
D|----3-----3-----3----1-----1-----1---3-----3-----3--------------------------||



[Pre-Chorus #2, Guitar One, "now and for always..."
d|--------------------------------------------------------------------
A|-----------p-h------------------------------------------------------
F|----------5^2^5---------------------8--7\5-3-------8-----5----------
C|---pm--5-------------3--2---/5--===-8----------===-8-5-----5-4^5/7--
G|---===-5---------===-3----3-----6-6-6----------6-6-6---6------------
D|---3-3-3---------1-1-1----------------------------------------------


[Pre-Chorus #2, Guitar Two, "now and for always..."
d|--------------------------------------------------------------------
A|--------------------------------------------------------------------
F|-----------h-h---------------------8-------------8------------------
C|---pm--5--4^5^6------3--2^0^2--===-8--8\7----===-8------5-----------
G|---===-5---------===-3---------6-6-6------5--6-6-6--6-----6--5------
D|---3-3-3---------1-1-1--------------------------------8-------------



[Chorus]
d|----------------------------------------------------------------------
A|----------------------------------------------------------------------
F|----------------------------------------------------------------------
C|---8\5---5-pm-------7\5---5-pm-------8\5---5-pm-------7\5-pm----7-8---
G|---x-x-=-5-=======--x-x-=-5-=======--x-x-=-5-=======--x-x-=====-7-8---
D|---6\3-3-3-3-3-3-3--5\3-3-3-3-3-3-3--6\3-3-3-3-3-3-3--5\3-3-3-3-5-6---


[Chorus]
d|----------------------------------------------------------------------
A|----------------------------------------------------------------------
F|----------------------------------------------------------------------
C|---8\5---5-pm-------7\5---5-pm-------8\5---5-pm-------7\5-pm----7-8---
G|---x-x-=-5-=======--x-x-=-5-=======--x-x-=-5-=======--x-x-=====-7-8---
D|---6\3-3-3-3-3-3-3--5\3-3-3-3-3-3-3--6\3-3-3-3-3-3-3--5\3-3-3-3-5-6---


[Chorus]
d|----------------------------------------------------------------------
A|----------------------------------------------------------------------
F|----------------------------------------------------------------------
C|---8\5---5-pm-------7\5---5-pm-------9\5---5-pm-------7\5-pm----5-3---
G|---x-x-=-5-=======--x-x-=-5-=======--x-x-=-5-=======--x-x-=====-5-3---
D|---6\3-3-3-3-3-3-3--5\3-3-3-3-3-3-3--7\3-3-3-3-3-3-3--5\3-3-3-3-3-1---


[Chorus]
d|--------------------------------------------------------------------
A|--------------------------------------------------------------------
F|--------------------------------------5-pm--5-pm--------------------
C|---8\5---5-pm-------7\5---5-pm--------5-===-5-=======---------------
G|---x-x-=-5-=======--x-x-=-5-=======---3-3-3-3-3-3-3-3---------------
D|---6\3-3-3-3-3-3-3--5\3-3-3-3-3-3-3---------------------------------



[Bridge]
d|---------------------------------------------------------------------
A|---------------------------------------------------------------------
F|---------------------------------------------------------------7-----
C|--pm-=-5----=-5---5----=-5---=-5---5----=-5---=-5---5--=-------7-6---
G|---=-5----=-5---=----=-5---=-5---=----=-5---=-5---=----3-3-5-6-5-6---
D|---7------7-----7----7-----7-----7----6-----6-----6--------------4---


[Bridge] play three times
d||---------------------------------------------------------------------------------------||
A||:-------------------------------------------------------------------------------------:||
F||---------------------------------------------------------------------------------------||
C||---8\5-pm--5-------------7\5-----5--------------8\5-----5-------------10\6-------6-6---||
G||:--x-x--=--5-===--=====--x-x--=--5--===--=====--x-x--=--5--===--=====-10\x-=====-6-6--:||
D||---6\3--3--3-3-3--3-3-3--5\3--3--3--3-3--3-3-3--6\3--3--3--3-3--3-3-3--8\4-4-4-4-4-4---||


[Bridge] play four times
d||--------------------------------------------------------------|| ---------------------
A||:------------------------------------------------------------:|| ---------------------
F||--------------------------------------------------------------|| ---------------------
C||---pm--5------5------5-qr------5------5-------6-----6--6-6----|| -----5------5------5-
G||:--===-5--===-5--===-5-----===-5--===-5---===-6-===-6--6-6---:|| -===-5--===-5--===-5-
D||---3-3-3--3-3-3--3-3-3-----3-3-3--3-3-3---4-4-4-4-4-4--4-4----|| -3-3-3--3-3-3--3-3-3-



[Bridge]
d|---------------------------------------------------------------------
A|---------------------------------------------------------------------
F|---------------------------------------------------------------7-----
C|--pm-=-5----=-5---5----=-5---=-5---5----=-5---=-5---5--=-------7-6---
G|---=-5----=-5---=----=-5---=-5---=----=-5---=-5---=----3-3-5-6-5-6---
D|---7------7-----7----7-----7-----7----6-----6-----6--------------4---



[Chorus/Outro]
d|----------------------------------------------------------------------
A|----------------------------------------------------------------------
F|----------------------------------------------------------------------
C|---8\5---5-pm-------7\5---5-pm-------8\5---5-pm-------7\5-pm----7-8---
G|---x-x-=-5-=======--x-x-=-5-=======--x-x-=-5-=======--x-x-=====-7-8---
D|---6\3-3-3-3-3-3-3--5\3-3-3-3-3-3-3--6\3-3-3-3-3-3-3--5\3-3-3-3-5-6---



[Chorus/Outro]
d|----------------------------------------------------------------------
A|----------------------------------------------------------------------
F|----------------------------------------------------------------------
C|---8\5---5-pm-------7\5---5-pm-------8\5---5-pm-------7\5-pm----7-8---
G|---x-x-=-5-=======--x-x-=-5-=======--x-x-=-5-=======--x-x-=====-7-8---
D|---6\3-3-3-3-3-3-3--5\3-3-3-3-3-3-3--6\3-3-3-3-3-3-3--5\3-3-3-3-5-6---



[Chorus/Outro]
d|--------------------------------------------------------------------
A|--------------------------------------------------------------------
F|--------------------------------------------------------------------
C|---8\5---5-pm-------7\5---5-pm-------9\5---5-pm-------7\5-pm----5-3-
G|---x-x-=-5-=======--x-x-=-5-=======--x-x-=-5-=======--x-x-=====-5-3-
D|---6\3-3-3-3-3-3-3--5\3-3-3-3-3-3-3--7\3-3-3-3-3-3-3--5\3-3-3-3-3-1-



[Chorus/Outro]
d|--------------------------------------------------------------------
A|--------------------------------------------------------------------
F|--8------------------3/5--------------------------------------------
C|--8------------------3/5---------------------------------x-x-x-7-8--
G|--6------------------1/3---------------------------------x-x-x-7-8--
D|---------------------------------------------------------x-x-x-5-6--



[Chorus/Outro]
d|----------------------------------------------------------------------
A|----------------------------------------------------------------------
F|----------------------------------------------------------------------
C|---8\5---5-pm-------7\5---5-pm-------8\5---5-pm-------7\5-pm----7-8---
G|---x-x-=-5-=======--x-x-=-5-=======--x-x-=-5-=======--x-x-=====-7-8---
D|---6\3-3-3-3-3-3-3--5\3-3-3-3-3-3-3--6\3-3-3-3-3-3-3--5\3-3-3-3-5-6---


[Chorus/Outro]
d|----------------------------------------------------------------------
A|----------------------------------------------------------------------
F|----------------------------------------------------------------------
C|---8\5---5-pm-------7\5---5-pm-------8\5---5-pm-------7\5-pm----7-8---
G|---x-x-=-5-=======--x-x-=-5-=======--x-x-=-5-=======--x-x-=====-7-8---
D|---6\3-3-3-3-3-3-3--5\3-3-3-3-3-3-3--6\3-3-3-3-3-3-3--5\3-3-3-3-5-6---


[Chorus/Outro]
d|----------------------------------------------------------------------
A|----------------------------------------------------------------------
F|----------------------------------------------------------------------
C|---8\5---5-pm-------7\5---5-pm-------9\5---5-pm-------7\5-pm----5-3---
G|---x-x-=-5-=======--x-x-=-5-=======--x-x-=-5-=======--x-x-=====-5-3---
D|---6\3-3-3-3-3-3-3--5\3-3-3-3-3-3-3--7\3-3-3-3-3-3-3--5\3-3-3-3-3-1---


[Chorus/Outro]
d|--------------------------------------------------------------------
A|--------------------------------------------------------------------
F|--------------------------------------5-pm--5-pm--------------------
C|---8\5---5-pm-------7\5---5-pm--------5-===-5-=======---------------
G|---x-x-=-5-=======--x-x-=-5-=======---3-3-3-3-3-3-3-3---------------
D|---6\3-3-3-3-3-3-3--5\3-3-3-3-3-3-3---------------------------------
   
https://primanota.ru/ghost/zenith-chords.htm

Привет, гитарист!

Тебе подарок от сайта PrimaNota.ru

Забрать подарок
ВАМ ПОДАРКИ ОТ ПРОЕКТА
"ГИТАРНАЯ РЕВОЛЮЦИЯ"