Войти:  Facebook Google Twitter Vk Yandex Mail.ru
PrimaNota.ru - самый крупный в мире бесплатный архив песенных текстов, аккордов, табулатур и нот


Ghost - See The Light - табы

Печатать
ViraMusic 2019 в Петербурге 4 апреля 2019! Скидка 10%!

See The Light

  • аккорды, текст

Авторы: Tom Dalgety, A Ghoul Writer, Dimitri Tikovoï

See the Light

DROP-C TUNING

|* = repeat sign
*| = repeat sign
^ = hammer-on/pull-off
/ = slide up
 = slide down
() = harmonics
x = string mute
^b = bend
qr = Quick Rest
T = tapping
~~ = trill
X\ = pick slide

pm
== = Palm Mute

VERSE {Piano translated to guitar
D|--------5----------------------1-----0-------------3--------1----0-----------3-------|
A|-----8-----echo notes----------3-----3----3--------3--------3----3---3-------3-------|
F|-------------------------------2-----0----3--------3--------2----0---3---2---3-------|
C|-------------------------------0-----2----3---3----5--------0----2---3---3---5-------|
G|-------------------------------------3----1---3------------------3---1---3-----------|
C|----------------------------------------------3--------------------------3-----------|

D|--------------------------|
A|--6-5----3-----5----3-----|
F|--5-5----3-----5----3-----|
C|--5-5----3-3---5----3-----|
G|--3-3----1-3---3----1-----|
C|-----------3--------------|

CHORUS, GT 1
D||------------------------------------------8----------8---------||
A||-------------------------------------------8--------8--------*||
F||---------------------------------4---7-------10-9---9---------||
C||--PM----------75/7--PM----------5-5-5-------------------------||
G||*-===========-53/5--===========---5-5------------------------*||
C||--0-0-0-0-0-0--------5-5-5-5-5-5-------------------------------||

CHORUS, GT 2
D||---------------------------------------------------------------||
A||*||
F||---------------------------------4---7--10-9-7-------9--------||
C||--PM----------75/7--PM----------5-5-5----------10---10--------||
G||*-===========-53/5--===========---5-5------------------------*||
C||--0-0-0-0-0-0--------5-5-5-5-5-5-------------------------------||

CHORUS, GT 1
D||------------------------------------------8----------8---------||
A||-------------------------------------------8--------8--------*||
F||---------------------------------4-4----------10-9---9---------||
C||--PM----------7---7--PM----------5-5---------------------------||
G||*-===========-5---5--===========-5-5--------------------------*||
C||--0-0-0-0-0-0--------5-5-5-5-5-5-------------------------------||

CHORUS, GT 2
D||---------------------------------------------------------------||
A||*||
F||---------------------------------4-4-----10-9-7-------9--------||
C||--PM----------7---7--PM----------5-5------------10---10--------||
G||*-===========-5---5--===========-5-5--------------------------*||
C||--0-0-0-0-0-0--------5-5-5-5-5-5-------------------------------||

VERSE {Piano translated to guitar
D|-------------------------------1-----0-------------3--------1----0-----------3-------|
A|-------------------------------3-----3----3--------3--------3----3---3-------3-------|
F|-------------------------------2-----0----3--------3--------2----0---3---2---3-------|
C|-------------------------------0-----2----3---3----5--------0----2---3---3---5-------|
G|-------------------------------------3----1---3------------------3---1---3-----------|
C|----------------------------------------------3--------------------------3-----------|

D|--------------------------|
A|--6-5----3-----5----3-----|
F|--5-5----3-----5----3-----|
C|--5-5----3-3---5----3-----|
G|--3-3----1-3---3----1-----|
C|-----------3--------------|

CHORUS, GT 1
D||------------------------------------------8----------8---------||
A||-------------------------------------------8--------8--------*||
F||---------------------------------5-4-7-------10-9---9---------||
C||--PM----------75/7--PM----------5-5-5-------------------------||
G||*-===========-53/5--===========-5-5-5------------------------*||
C||--0-0-0-0-0-0--------5-5-5-5-5-5-------------------------------||

CHORUS, GT 2
D||---------------------------------------------------------------||
A||*||
F||---------------------------------5-4-7--10-9-7-------9--------||
C||--PM----------75/7--PM----------5-5-5----------10---10--------||
G||*-===========-53/5--===========-5-5-5------------------------*||
C||--0-0-0-0-0-0--------5-5-5-5-5-5-------------------------------||

CHORUS, GT 1
D||------------------------------------------8----------8-8-------||
A||-------------------------------------------8--------8-8------*||
F||--------------7------------------5-4----------10-9---9-9-------||
C||--PM----------7------PM----------5-5---------------------------||
G||*-===========-----5--===========-5-5--------------------------*||
C||--0-0-0-0-0-0-----0--5-5-5-5-5-5-------------------------------||

CHORUS, GT 2
D||---------------------------------------------------------------||
A||*||
F||--------------7------------------5-4-----10-9-7-------9---9----||
C||--PM----------7------PM----------5-5------------10---10--10----||
G||*-===========-----5--===========-5-5--------------------------*||
C||--0-0-0-0-0-0-----0--5-5-5-5-5-5-------------------------------||

UNDER KEYBOARD SOLO
D|------------------------------------------------------------------|
A|------------------------------------------------------------------|
F|----3-3------------7----10---------3-3----------7----10-----------|
C|----3-3------------7----10---10----3-3----------7----10--10-------|
G|----1-1------12---5-----8---10----1-1-----12--5-----8--10-/12--|
C|-------------12---0---------10------------12--0--------10-/12--|

D|------------------------------------------------------------------|
A|------------------------------------------------------------------|
F|-3-3--3-3--3------------------5--5-5-5----------------------------|
C|-3-3--3-3--3----0----7-7-7----5--5-5-5---REST---------------------|
G|-1-1--1-1--1----0----7-7-7----3--3-3-3----------------------------|
C|----------------0----7-7-7----------------------------------------|

SOLO
D||-------------------------10-----13-12-10----13-12----||-----5--------
A||------------6--8--10-11----10-----------13---------*||---8----------
F||----5--7--9------------------------------------------||--------------
C||-----------------------------------------------------||--REST--------
G||---------------------------------------------------*||--------------
C||-----------------------------------------------------||--------------

GT 1
D|-------------------------8---------8-8---------------------------|
A|---------------------------8-------8-8---------------------------|
F|-------------------5-4-------10-9--9-9---------------------------|
C|-------PM----------5-5-------------------------------------------|
G|--12--===========-5---------------------------------------------|
C|--12--5-5-5-5-5-5-----------------------------------------------|

GT 2
D|-----------------------------------------------------------------|
A|-----------------------------------------------------------------|
F|-------------------5-4---10-9-7-----9--9-------------------------|
C|-------PM----------5-5----------10-10-10-------------------------|
G|--12--===========-5---------------------------------------------|
C|--12--5-5-5-5-5-5-----------------------------------------------|

CHORUS, GT 1
D||------------------------------------------8----------8-8-------||
A||-------------------------------------------8--------8-8------*||
F||--------------7------------------5-4----------10-9---9-9-------||
C||--PM----------7------PM----------5-5---------------------------||
G||*-===========-----5--===========-5-5--------------------------*||
C||--0-0-0-0-0-0-----0--5-5-5-5-5-5-------------------------------||

CHORUS, GT 2
D||---------------------------------------------------------------||
A||*||
F||--------------7------------------5-4-----10-9-7-------9---9----||
C||--PM----------7------PM----------5-5------------10---10--10----||
G||*-===========-----5--===========-5-5--------------------------*||
C||--0-0-0-0-0-0-----0--5-5-5-5-5-5-------------------------------||

D|-----5-----5----5-----5----5----5----5----5------5---------------|
A|---8-----8----8-----8----8----8----8----8-----8------------------|
F|-----------------------------------------------------------------|
C|---------------FADE OUT------------------------------------------|
G|-----------------------------------------------------------------|
C|-----------------------------------------------------------------|

[Verse 1: Cardinal Copia]
Many a sin I have witnessed
And in many indeed I have been
Many a rat I've befriended
And so many a thorn stood between
But of all the demons I've known
None could compare to you

[Pre-Chorus: Cardinal Copia]
Every day that you feed me with hate
I grow stronger!
Every day that you feed me with hate
I grow stronger!

[Chorus: Cardinal Copia]
Drink me, eat me
Then you'll see the light
Drink me, eat me
Then you'll see the light

[Verse 2: Cardinal Copia]
Many a mind I have haunted
And in many a way, I have been
Often the one to have flaunted
An image grotesque and obscene
But of all these dark roads that I roam
None could compare to you

[Pre-Chorus: Cardinal Copia]
Every day that you feed me with hate
I grow stronger!
Every day that you feed me with hate
I grow stronger!

[Chorus: Cardinal Copia]
Drink me, eat me
Then you'll see the light
Drink me, eat me
Then you'll see the light

[Solo: Nameless Ghouls (Fire & Aether)]

[Chorus: Cardinal Copia]
Drink me, eat me
Then you'll see the light
Drink me, eat me
Then you'll see the light

[Outro: Cardinal Copia]
Every day that you feed me with hate (Drink me, eat me)
I grow stronger! (Then you'll see the light)
Every day that you feed me with hate (Drink me, eat me)
I grow stronger! (Then you'll see the light)
Другие композиции этого автора:
Другие материалы по этой песне:
  • Аккорды, текст

https://primanota.ru/ghost/see-light-chords.htm

Привет, гитарист!

Тебе подарок от сайта PrimaNota.ru

Забрать подарок
ВАМ ПОДАРКИ ОТ ПРОЕКТА
"ГИТАРНАЯ РЕВОЛЮЦИЯ"