Войти:  Facebook Google Twitter Vk Yandex Mail.ru
PrimaNota.ru - самый крупный в мире бесплатный архив песенных текстов, аккордов, табулатур и нот


Ghost - Monstrance Clock - таба, бас-таба, видео

Печатать
Просмотров: 229
Лучшая metal-группа Петербурга

Monstrance Clock

  • аккорды и текст
  • gtp-табы

Авторы: Indio Marcato, A Ghoul Writer

Monstrance Clock

Standard Tuning, but tuned down one whole step

|: = repeat sign
:| = repeat sign
^ = hammer-on/pull-off
/ = slide up
\ = slide down
() = harmonics
x = string mute
^b = bend

pm
== = Palm Mute


Guitar One, Intro
-----------------------------------------------------------------------
-----------------------------------------------------------------------
-----------------------------------------------------------------------
-----------------------------------------------------------------------
-----------------------------------------------------------------------
---0-0-7--7-6^7^6---2^3^2-1--0--0-7--7-6^7^6--6^7^6^7^6^7^6^7^6^7^6^7--


Guitar One, Intro
------------------------------
------------------------------
------------------------------
------------------------------
-----------0^2^3--2^3^5--4\0--
---0--0-7---------------------



Guitar Two, Intro
---------------------------------------------------------------------
---------------------------------------------------------------------
--pm--9-----9---pm----15-------15---pm--9-----9---pm----15-------15--
--===-9-===-9---=====-15-=====-15---===-9-===-9---=====-15-=====-15--
--7-7-7-7-7-7---13-13-13-13-13-13---7-7-7-7-7-7---13-13-13-13-13-13--
---------------------------------------------------------------------


Guitar Two, Intro
-----------------------------------------------------------------------
--------------pm----13--pm----15---------------------------------------
-pm--9-----9--=====-12--=====-14-pm----14--------14--------14--------14
-===-9-===-9--10-10-10--12-12-12-=====-14--=====-14--=====-14--=====-14
-7-7-7-7-7-7---------------------12-12-12--12-12-12--12-12-12--12-12-12
-----------------------------------------------------------------------


VERSE GUITAR ONE
|--------------------------------------------------------------------
|:-------------------------------------------------------------------
|--------------------------------------------------------------------
|--------------------------------------------------------------------
|:-0-0-7--7-6^7^6---2^3^2-1--0--0-7--7-6^7^6--6^7^6^7^6^7^6^7^6^7^6^7
|--------------------------------------------------------------------


VERSE GUITAR ONE
----------------------------------------------|
---------------------------------------------:|
-----10-10-5--5-------------------------------|
-----10-10-5--5-5--5-7--7-5--5-7--7-7-QUICK---|
-0-0--8--8-3--3-5--5-7--7-5--5-7--7-7--REST--:|
----------------3--3-5--5-3--3-5--5-5---------|


VERSE GUITAR TWO
|---------------------------------------------------------------------
|:--------------------------------------------------------------------
|--pm----14--------14------8------8--------14--------14------8------8-
|--=====-14--=====-14--===-8--===-8--=====-14--=====-14--===-8--===-8-
|:-12-12-12--12-12-12--6-6-6--6-6-6--12-12-12--12-12-12--6-6-6--6-6-6-
|---------------------------------------------------------------------


VERSE GUITAR TWO
----------------------------------------------------------|
---------------------------------------------------------:|
-pm----14------10------5----------------------------------|
-=====-14--===-10--===-5------5--7--7-5--5-7--7-7-QUICK---|
-12-12-12--8-8--8--3-3-3--===-5--7--7-5--5-7--7-7--REST--:|
--------------------------3-3-3--5--5-3--3-5--5-5---------|


CHORUS, GUITAR ONE
--------------------------------------------------------------------
---13----13----13----13----13----13----13----13----13----13----13---
------16----16----14----14----14----14----16----16----14----14----14
--------------------------------------------------------------------
--------------------------------------------------------------------
--------------------------------------------------------------------


CHORUS, GUITAR ONE
--------------------------------------------------------------------
-13----13----13----12----12----13----13----13----13----13----13-----
----14----12----12----12----12----16----16----14----14----14----14--
--------------------------------------------------------------------
--------------------------------------------------------------------
--------------------------------------------------------------------


CHORUS, GUITAR ONE
--------------------------------------------------------------------
-13----13----13----13----13------12---------------------------------
----16----16----14----14----14--------------------------------------
--------------------------------------------------------------------
--------------------------------------------------------------------
--------------------------------------------------------------------



CHORUS, GUITAR TWO
|------------------------------------------------------------------|
|:----------------------------------------------------------------:|
|----------2-2-2-2-7-7-7-7--5-------------2-2-2-2-5-5-5-5----------|
|--3-3-3-3-2-2-2-2-7-7-7-7--5--5--3-3-3-3-2-2-2-2-5-5-5-5-5-5-5-5--|
|:-3-3-3-3-0-0-0-0-5-5-5-5--3--5--3-3-3-3-0-0-0-0-3-3-3-3-5-5-5-5-:|
|--1-1-1-1---------------------3--1-1-1-1-----------------3-3-3-3--|



Solo
----------------15--19-19^b19-12------------------------------------
----------17-13------------------15-12^b12-----8--------------------
----17-14----------------------------------------5/7-7------5-------
-15----------------------------------------14-----------5^7---7-----
--------------------------------------------------------------------
--------------------------------------------------------------------


Solo
--------------------------------------------------------------------
--------------------------------------------------------------------
--7^b--7^5----5/9-----7---------4-----4---4-------------------------
-----------7------10----9---0^2---0-2---2---2-----------------------
--------------------------------------------------------------------
--------------------------------------------------------------------



Keyboard part transformed into guitar
---------------------------------------------------------------/12---
---10-12-----8-10-------10-12----8-10------10-12----8-10-------------
---------9--------9-7---------9-------9-7--------9-------9-7-9-------
---------------------------------------------------------------------
---------------------------------------------------------------------
---------------------------------------------------------------------


Guitar under keyboard part
---------------------------------------------------------------------
---------------------------------------------------------------------
--pm--9-----9---pm----15-------15---pm--9-----9---pm----15-------15--
--===-9-===-9---=====-15-=====-15---===-9-===-9---=====-15-=====-15--
--7-7-7-7-7-7---13-13-13-13-13-13---7-7-7-7-7-7---13-13-13-13-13-13--
---------------------------------------------------------------------


Guitar under keyboard part
-----------------------------------------------------------------------
--------------pm----13--pm----15-------------------------------pm------
-pm--9-----9--=====-12--=====-14-pm----14--------14--------14--======--
-===-9-===-9--10-10-10--12-12-12-=====-14--=====-14--=====-14--xxxxxx--
-7-7-7-7-7-7---------------------12-12-12--12-12-12--12-12-12--xxxxxx--
---------------------------------------------------------------xxxxxx--




VERSE TWO
--------------------------------------------------------------------
--------------------------------------------------------------------
-------------------------------------------10-10-5-5----------------
-------------------------------------------10-10-5-5-5-5-7-7-5-5-7-7
---0-0--7-7-6--6^7-6--0-0--7-7-6-6^7-6-0-0--8--8-3-3-5-5-7-7-5-5-7-7
-----------------------------------------------------3-3-5-5-3-3-5-5


VERSE TWO
-----------------------------------------------------------------------
-----------------------------------------------------------------------
----------------------------------------------10-10-5-5----------------
-7-9------------------------------------------10-10-5-5-5-5-7-7-5-5-7-7
-8-7--0-0-7-7-6--6^7-6--0-0-7-7-6--6^7-6--0-0--8--8-3-3-5-5-7-7-5-5-7-7
--------------------------------------------------------3-3-5-5-3-3-5-5


CHORUS TWO Organ part transformed to guitar
|----------5-----------------8-7-5----|
|:-6--8-5----8--5-----6-8-5--------8-:|
|------------------7------------------|
|-------------------------------------|
|:-----------------------------------:|
|-------------------------------------|


CHORUS TWO
|---------------| 
|-long----------|
|-rest----------|
|-for-----------|
|-vocals-and----|
|--organ-parts--|


CHORUS TWO, GUITAR ONE, Clean Tone
--------------------------------------------------------------------
---13----13----13----13----13----13----13----13----13----13----13---
------16----16----14----14----14----14----16----16----14----14----14
--------------------------------------------------------------------
--------------------------------------------------------------------
--------------------------------------------------------------------


CHORUS TWO, GUITAR ONE, Clean Tone
--------------------------------------------------------------------
-13----13----13----12----12----13----13----13----13----13----13-----
----14----12----12----12----12----16----16----14----14----14----14--
--------------------------------------------------------------------
--------------------------------------------------------------------
--------------------------------------------------------------------


CHORUS TWO, GUITAR ONE, Clean Tone
--------------------------------------------------------------------
-13----13----13----13----13------12---------------------------------
----16----16----14----14----14--------------------------------------
--------------------------------------------------------------------
--------------------------------------------------------------------
--------------------------------------------------------------------


CHORUS TWO, GUITAR TWO, CLEAN TONE
|---------------| --------------------------------------------0---
|-long----------| ------------------------0-----------------3---3-
|-rest----------| -------5-----------5-----------5--------5-------
|-for-----------| ----7--------7---7----7------7------7-----------
|-vocals-and----| -----------7----------------------7-------------
|--organ-parts--| ------------------------------------------------


CHORUS TWO, GUITAR TWO, CLEAN TONE
--------------------------------------------------------------------
----8-------------------------0-------------------0---0-------------
-/7---7------5----------5-----------5---------------2---------------
-----------7------7---7-----7-----7-------7-----0-------------------
----------------7-----------------------7-----3---------------------
--------------------------------------------------------------------



CHORUS TWO, BOTH GUITARS, distorted
|------------------------------------------------------------------|
|:----------------------------------------------------------------:|
|----------2-2-2-2-7-7-7-7--5-------------2-2-2-2-5-5-5-5----------|
|--3-3-3-3-2-2-2-2-7-7-7-7--5--5--3-3-3-3-2-2-2-2-5-5-5-5-5-5-5-5--|
|:-3-3-3-3-0-0-0-0-5-5-5-5--3--5--3-3-3-3-0-0-0-0-3-3-3-3-5-5-5-5-:|
|--1-1-1-1---------------------3--1-1-1-1-----------------3-3-3-3--|



Keyboard outro turned into guitar
|--5-7-------5-------5-7-------5------|
|:-----5---8---5---------5---8-------:|
|----------------7----------------7---|
|-------------------------------------|
|:-----------------------------------:|
|-------------------------------------|



CHORUS TWO, BOTH GUITARS, OUTRO
---------------------------------------------------------------------
---------------------------------------------------------------------
----------2-2-2-2-7-7-7-7--5-------------2-2-2-2-5-5-5-5-------------
--3-3-3-3-2-2-2-2-7-7-7-7--5--5--3-3-3-3-2-2-2-2-5-5-5-5---5---5-END-
--3-3-3-3-0-0-0-0-5-5-5-5--3--5--3-3-3-3-0-0-0-0-3-3-3-3---5---5-----
--1-1-1-1---------------------3--1-1-1-1-------------------3---3-----
Добавлено: 14.06.2018
Другие материалы по этой песне:

Страница создана 03.02.2018
https://primanota.ru/ghost/monstrance-clock-chords.htm

Привет, гитарист!

Тебе подарок от сайта PrimaNota.ru

Забрать подарок
ВАМ ПОДАРКИ ОТ ПРОЕКТА
"ГИТАРНАЯ РЕВОЛЮЦИЯ"