Войти:  Facebook Google Twitter Vk Yandex Mail.ru
PrimaNota.ru - самый крупный в мире бесплатный архив песенных текстов, аккордов, табулатур и нот


Foo Fighters - Live In Skin - аккорды и текст, таба, бас-таба, видео

Печатать
Просмотров: 317
Лучшая metal-группа Петербурга

Live In Skin

  • аккорды и текст
  • gtp-табы
Тональность: 
0
Проще! Аппликатуры

Авторы музыки: Dave Grohl, Nate Mendel, Taylor Hawkins

Live In Skin
Foo Fighters
Artist: Foo Fighters
Song: Live In Skin
Album: There is nothing left to lose
Tabbed by: Dave Grayhl
Tuning: DADBGe

Chords;
   D D C  G  Gm      
e|-0--2--3--3--3--|
B|-3--3--1--3--3--|
G|-2--2--0--0--0--|
D|-0--0--2--0--0--|
A|-0--0--3--2--1--|
D|-0--0-----------|

Intro
e|--0-0-0----0-0-0----|
B|--3-3-3----3-3-3----|
G|--2-2-2----2-2-2----|
D|--0-0-0----0-0-0----|
A|--0-0-0----0-0-0----|
D|--0-0-0----0-0-0----|
               | 
Добавлено: 26.06.2015
Другие материалы по этой песне:

Страница создана 05.04.2012
https://primanota.ru/foo-fighters/live-in-skin-chords.htm

Привет, гитарист!

Тебе подарок от сайта PrimaNota.ru

Забрать подарок
ВАМ ПОДАРКИ ОТ ПРОЕКТА
"ГИТАРНАЯ РЕВОЛЮЦИЯ"