Войти:  Facebook Google Twitter Vk Yandex Mail.ru
PrimaNota.ru - самый крупный в мире бесплатный архив песенных текстов, аккордов, табулатур и нот


Foals - Night Swimmers - табы


This is my first tab ever, so I hope you guys like it! I just thought this amazing song by this godly band 
deserves to be tabbed! It's pretty simple tho, so enjoy!

[Intro/verse]
Guitar 1

e|---------------------------------------------------------------------------|
B|---------------------------------------------------------------------------|
G|---12--12-------12 14 14--------14 11 11------- 11----9---99-99-9h11-------|
D|----------14 14-----------14 14----------14 14-----------------------------|
A|---------------------------------------------------------------------------|
D|---------------------------------------------------------------------------|

e|---------------------------------------------------------------------------|
B|---------------------------------------------------------------------------|
G|--12-12------12 16 16-------16 14 14--------14--12-12--------12------------|
D|-------14 14----------14 14----------14 14-----------14 14-----------------|
A|---------------------------------------------------------------------------|
D|---------------------------------------------------------------------------|


[Chorus]

e|---------------------------------------------------------------------------|
B|---------------------------------------------------------------------------|
G|---------------------------------------------------------------------------|
D|--2--2--2/5--5--5/7--7-7h10--/2-2-22----2--2-2/5-5\0-0-0-0-0h2-------------|
A|--2--2--2/5--5--5/7--7-7h10--/2-2-22----2--2-2/5-5\0-0-0-0-0h2-------------|
D|--2--2--2/5--5--5/7--7-7h10--/2 2-22----2--2-2/5-5\0-0-0-0-0h2-------------|


************************************

| x   Dead note
| g   Grace note
| (n) Ghost note
| h   Hammer-on
| p   Pull-off
| r   Release
| >   Accented note
| t   Tapping
| b   Bend
| br  Bend release
| pb  Pre-bend
| pbr Pre-bend release
| /   Slide up
| \   Slide down
| ~   Vibrato
| s   Slap
| P   Pop
| PM  Palm mute
| TR  Trill
| N   Tremolo

************************************
   
https://primanota.ru/foals/night-swimmers-chords.htm

Привет, гитарист!

Тебе подарок от сайта PrimaNota.ru

Забрать подарок
ВАМ ПОДАРКИ ОТ ПРОЕКТА
"ГИТАРНАЯ РЕВОЛЮЦИЯ"