Войти:  Facebook Google Twitter Vk Yandex Mail.ru
PrimaNota.ru - самый крупный в мире бесплатный архив песенных текстов, аккордов, табулатур и нот


Fink - Perfect Darkness - табы

Печатать
ViraMusic 2019 в Петербурге 4 апреля 2019! Скидка 10%!

Perfect Darkness

  • аккорды, текст

Авторы: Fin Greenall, Tim Thornton, Guy Whittaker

-------------------------------------------------------------------------------
                             Perfect Darkness - Fink
-------------------------------------------------------------------------------
Tabbed by: Jack Valla
E-mail: jack_valla@yahoo.com

Tuning: DADGAD 
Hello everyone!
I listened to this song online and immediately wanted to learn it so here it goes:
(p.s This is the live version from Fink's live album 'Wheels Turn Beneath My Feet'. Also I didn't tab the entire
song, just the major parts so either work it out yourself or send me updates that I can add to this for 
everyone)

Small quiet intro (0:11-0:31)
d|---------------------------------------------------------------------------|
A|---------------------------------------------------------------------------|
G|---------------------------------------------------------------------------|
D|--------0-----------(x2)---------------------------------------------------|
A|---3---------0-------------------------------------------------------------|
D|---------------------------------------------------------------------------|

Intro continued and verse, I don't know if he uses a delay effect or if he plays the 2nd and 3rd note several 
times or both ("Perfect memories fall down like ashes...) 
d|---------------------------------------------------------------------------|
A|---------------------------------------------------------------------------|
G|---------------------------------------------------------------------------|
D|-----0--5-------------0---------0--5--------------0------------------------|
A|--3~---------------7----------3~---------------7---------------------------|
D|---------------7~--------------------------7~------------------------------|

Choruses (1:32-2:15)I don't know about these chords but these sound fine to me
d|---------------------------------------------------------------------------|
A|---------------------------------------------------------------------------|
G|----0----------0----------0------------------------------------------------|
D|----2--(6x)----4--(6x)----0--(12x)-----------------------------------------|
A|----3----------5----------7------------------------------------------------|
D|--------------------------7------------------------------------------------|

Please send me any updates that I can add to this to make it complete, my email is at the top ^^
Cheers

************************************

| /   slide up
| \   slide down
| h   hammer-on
| p   pull-off
| ~   vibrato
| +   harmonic
| x   Mute note
| b   Bend
| pb  Pre-bend
| br  Bend release
| pbr Pre-bend release
| brb Bend release bend

************************************   
Другие материалы по этой песне:
  • Аккорды, текст

https://primanota.ru/fink/perfect-darkness-chords.htm

Привет, гитарист!

Тебе подарок от сайта PrimaNota.ru

Забрать подарок
ВАМ ПОДАРКИ ОТ ПРОЕКТА
"ГИТАРНАЯ РЕВОЛЮЦИЯ"