Войти:  Facebook Google Twitter Vk Yandex Mail.ru
PrimaNota.ru - самый крупный в мире бесплатный архив песенных текстов, аккордов, табулатур и нот


Fifteen - Helter Smelter - текст песни, табы

Печатать
ViraMusic 2019 в Петербурге 4 апреля 2019! Скидка 10%!

Helter Smelter

  • аккорды, текст

                          Fifteen - Helter Smelter
-------------------------------------------------------------------------------
Tabbed By - MrCrimpshrine

Intro.
E------------------------------------------------------------------------|
B------------------------------------------------------------------------|
G-5--7-----------5--7--12-11--9--5--7------------------------------------|
D-5--7--5--4--2--5--7--12-11--9--5--7------------------------------------|
A-3--5--5--4--2--3--5--10--9--7--3--5------------------------------------|
E-------3--2--0----------------------------------------------------------|
  \     x2    /

Verse
E------------------------------------------------------------------------|
B------------------------------------------------------------------------|
G--5--7-----------5--7-----5-----5---------------------------------------|
D--5--7--5--5--2--5--7--5--5--5--5---------------------------------------|
A--3--5--5--5--2--3--5--5--3--5--3---------------------------------------|
E--------3--2--0--------3-----3------------------------------------------|
   \     x3    /

Chorus (repeats at different speeds/rhythms, but it's the same three chords)
E------------------------------------------------------------------------|
B-----7--7---------------------------------------------------------------|
G-----7--7---------------------------------------------------------------|
D--5--7--7---------------------------------------------------------------|
A--5--5--3---------------------------------------------------------------|
E--3---------------------------------------------------------------------|

Outro
E------------------------------------------------------------------------|
B-----------------------12-11--9--7--5--4--------------------------------|
G-----------5--7--5--7--12-11--9--7--5--4--5-----------------------------|
D--5--4--2--5--7--5--7--12-11--9--7--5--4--5-----------------------------|
A--5--4--2--3--5--3--5--10--9--7--5--3--2--5-----------------------------|
E--3--2--0---------------------------------3-----------------------------|   
https://primanota.ru/fifteen/helter-smelter-chords.htm

Привет, гитарист!

Тебе подарок от сайта PrimaNota.ru

Забрать подарок
ВАМ ПОДАРКИ ОТ ПРОЕКТА
"ГИТАРНАЯ РЕВОЛЮЦИЯ"