Войти:  Facebook Google Twitter Vk Yandex Mail.ru
PrimaNota.ru - самый крупный в мире бесплатный архив песенных текстов, аккордов, табулатур и нот


Fifteen - Devotion - табы

Печатать
ViraMusic 2019 в Петербурге 4 апреля 2019! Скидка 10%!

Devotion

  • аккорды, текст

-------------------------------------------------------------------------------
                              DEVOTION - Fifteen
-------------------------------------------------------------------------------
Fretted By - MrCrimpshrine

Intro
E-------4-5-4-0----------------------------------------------------------|
B---------------4-5-4-0--------------------------------------------------|
G-----6--------------------9---------------------------------------------|
D--9--6-----------------7--9---------------------------------------------|
A--9--4-----------------7--7---------------------------------------------|
E--7--------------------5------------------------------------------------|

Lead pt.1
E------------------------------------------------------------------------|
B----------------------12-10-9-9----9----------------9-------------------|
G--s11-9-9-------13-11-----------11---11-11-9-9-9-11---------------------|
D----------9-9-9---------------------------------------------------------|
A------------------------------------------------------------------------|
E------------------------------------------------------------------------|

Lead pt.1
E--------------------------------------------------------------------------|
B-------------------------------12-10-9-10-9-9-7-9-12-10-9-10-9------------|
G--s11-9-9-------13-11-11-11-11---------------------------------11-9-13-11-|
D----------9-9-9-----------------------------------------------------------|
A--------------------------------------------------------------------------|
E--------------------------------------------------------------------------|

Verse
E---------------------------------------------------------------------|
B---------------------------------------------------------------------|
G--------9--9--6--4---------------------------------------------------|
D--7--9--9--9--6--4---------------------------------------------------|
A--7--9--7--6--4--2---------------------------------------------------|

Chorus
E---------------------------------------------------------------------|
B--9-----6------------------------------------------------------------|
G--9-----6------------------------------------------------------------|
D--9--9--6--7---------------------------------------------------------|
A--7--9--4--7---------------------------------------------------------|
E-----7-----5---------------------------------------------------------|

Bridge
E---------------------------------------------------------------------|
B--9--9--7--7--7------------------------------------------------------|
G--9--9--7--7--7------------------------------------------------------|
D--9--9--7--7--7------------------------------------------------------|
A--7--6--5--4--5------------------------------------------------------|
E---------------------------------------------------------------------|   
https://primanota.ru/fifteen/devotion-chords.htm

Привет, гитарист!

Тебе подарок от сайта PrimaNota.ru

Забрать подарок
ВАМ ПОДАРКИ ОТ ПРОЕКТА
"ГИТАРНАЯ РЕВОЛЮЦИЯ"