Войти:  Facebook Google Twitter Vk Yandex Mail.ru
PrimaNota.ru - самый крупный в мире бесплатный архив песенных текстов, аккордов, табулатур и нот


Fiddlers Green - P Stands For Paddy - табы

Печатать
ViraMusic 2019 в Петербурге 4 апреля 2019! Скидка 10%!

P Stands For Paddy

  • аккорды, текст

[Part A]
E|-------9-10-9----------9-|-------9-10-9---------|-------9-10-9----------9-|
B|----10--------12-10-12---|----10--------12-10-9-|----10--------12-10-12---|
G|-11----------------------|-11-------------------|-11----------------------|
D|-------------------------|----------------------|-------------------------|
A|-------------------------|----------------------|-------------------------|
E|-------------------------|----------------------|-------------------------|

[Part B]
E|-10-9-7----7-9-7-9-7------|
B|--------10-----------10-7-|
G|--------------------------|
D|--------------------------|
A|--------------------------|
E|--------------------------|                           
https://primanota.ru/fiddlers-green/p-stands-for-paddy-chords.htm

Привет, гитарист!

Тебе подарок от сайта PrimaNota.ru

Забрать подарок
ВАМ ПОДАРКИ ОТ ПРОЕКТА
"ГИТАРНАЯ РЕВОЛЮЦИЯ"