Войти:  Facebook Google Twitter Vk Yandex Mail.ru
PrimaNota.ru - самый крупный в мире бесплатный архив песенных текстов, аккордов, табулатур и нот


Fernando Sor - Sor Op6 No2 - табы

Печатать
ViraMusic 2019 в Петербурге 4 апреля 2019! Скидка 10%!

Sor Op6 No2

  • аккорды, текст

Note: the upper melodie notes are quarters, the lower notes are eights.


Allegretto

  |       |       |       |          |       |       |       |         
|-----------------5-------4--------|-5-------0-------2-------0--------|
|---------------------2-------3----|-----2-------0-------2-------0----|
|---------------------2-------4----|-----2-------1-------2-------1----|
|----------------------------------|----------------------------------|
|----------------------------------|----------------------------------|
|----------------------------------|----------------------------------|

  |       |       |       |          |       |       |       |         
|---------0------------------------|---------2---------------0--------|
|-4-----------0---3-------2--------|-0---------------0----------------|
|-----2-------1-------2-------2----|-----2-------2-------1-------1----|
|-----4---------------4-------2----|-----0-------0-------2-------2----|
|----------------------------------|----------------------------------|
|----------------------------------|----------------------------------|

  |       |       |       |          |       |       |       |         
|-----------------5-------4--------|-5-------0-------2-------0--------|
|-3-------2-----------2-------3----|-----2-------0-------2-------0----|
|-----4-------2-------2-------4----|-----2-------1-------2-------1----|
|-----2----------------------------|----------------------------------|
|-------------0--------------------|----------------------------------|
|----------------------------------|----------------------------------|

  |       |       |       |          |       |       |       |         
|---------0-------2-------4--------|-5-------2-------0----------------|
|-4-------------------2-------2----|-----2-------2-----------4--------|
|-----2-------4-------2------------|---------------------1------------|
|-----4-------6---------------3----|-----4-----------------------4----|
|----------------------------------|-------------0-------2-------2----|
|----------------------------------|----------------------------------|

  |       |           |       |         
|------------------||-0-------4--------|
|-7-------5--------||-----0-------3----|
|-----------------*||*----1-------4----|
|-----7-------6---*||*-----------------|
|-----7------------||------------------|
|-------------0----||------------------|

  |       |       |       |          |       |       |       |         
|-7-------4-------5----------------|-----------------0-------4--------|
|-------------3-------2---2--------|-2-------0-----------0-------3----|
|-----7-------4-------2-------2----|-----2-------1-------1-------4----|
|-----6----------------------------|-----2----------------------------|
|-----------------------------0----|----------------------------------|
|----------------------------------|-------------0--------------------|

  |       |       |       |          |       |       |       |         
|-7-------4-------5----------------|----------------------------------|
|-------------3-------2---2--------|-2-------0-------2-------3--------|
|-----7-------4-------2-------2----|-----2-------1-------2-------2----|
|-----6----------------------------|-----2----------------------------|
|-----------------------------0----|---------------------0-------2----|
|----------------------------------|-------------0--------------------|

  |       |       |       |          |       |       |       |         
|-0-------5-------4-------3--------|-----------------7-------5--------|
|-------------2-------3-------5----|-6-------7-----------7-------6----|
|-----2----------------------------|----------------------------------|
|----------------------------------|-----7-------7---------------0----|
|-----4-------0-------2-------4----|-----5-------5-------5------------|
|----------------------------------|----------------------------------|

  |       |       |       |          |       |             
|-4-------5-------7-------4--------|-4-------5--------||
|-----5-------5-------7-------3----|-----3-------2----||
|----------------------------------|-----2-----------*||
|-----0---------------0-------2----|-----------------*||
|-------------4--------------------|-------------0----||
|----------------------------------|------------------||

   
https://primanota.ru/fernando-sor/sor-op6-no2-chords.htm

Привет, гитарист!

Тебе подарок от сайта PrimaNota.ru

Забрать подарок
ВАМ ПОДАРКИ ОТ ПРОЕКТА
"ГИТАРНАЯ РЕВОЛЮЦИЯ"