Войти:  Facebook Google Twitter Vk Yandex Mail.ru
PrimaNota.ru - самый крупный в мире бесплатный архив песенных текстов, аккордов, табулатур и нот


Fernando Sor - Etude No 1 Op 60 - табы

Печатать
ViraMusic 2019 в Петербурге 4 апреля 2019! Скидка 10%!

Etude No 1 Op 60

  • аккорды, текст

                            Etude No.1 op.60                             


                                                               Fernando Sor



                                                               
E||--0--1--0-----|--------------|--------------|-----0--------|
B||-----------3--|--1--0--1--0--|-----1--0--3--|--1-----3-----|
G||--0--2--0-----|-----------0--|--2--2--0-----|-----------0--|
D||-----------3--|--2--0--2-----|--3--------3--|--2-----------|
A||--3-----------|--------------|--------------|-----3--2-----|
E||--------------|--------------|--------------|--------------|


                                                             
--0--1--0-----|-----------0--|-----1--------|--------------||
-----------3--|--1--0--1-----|--------0--3--|--1-----------||
--0--2--0-----|--------------|--2-----0-----|-----0-------*||
-----------3--|--2--0--2-----|--3--0-----3--|--2----------*||
--3-----------|-----------3--|--------------|--------3-----||
--------------|--------------|--------------|--------------||


                                                             
---------1-----|--0-----------|--------------|--------0-----|
---3-----------|--------1-----|--0-----3-----|--1-----------|
*-----0-----0--|-----0-----0--|-----0-----0--|-----0-----0--|
*--------0-----|--------2-----|--0-----3-----|--2-----------|
---2-----------|--3-----------|--------------|--------3-----|
---------------|--------------|--------------|--------------|


                                                                           
--------1-----|--0-----------|-----------2--|--3-----------|--0--1--0-----|
--3-----------|-----------3--|-----1-----1--|--------------|-----------3--|
-----0-----0--|-----0--1-----|--2-----------|--0--0--0--0--|--0--2--0-----|
--------0-----|--------------|--------0-----|--------------|-----------3--|
--2-----------|--3-----2-----|--0-----------|--------------|--3-----------|
--------------|--------------|--------------|--------------|--------------|


                                                                           
--------------|--------------|-----0--------|--0--1--0-----|-----0--3-----|
--1--0--1--0--|-----1--0--3--|--1-----3-----|-----------3--|--1-----------|
-----------0--|--2--2--0-----|-----------0--|--0--2--0-----|-----0--3-----|
--2--0--2-----|--3--------3--|--2-----------|-----------3--|--2--------2--|
--------------|--------------|-----3--2-----|--3-----------|--------------|
--------------|--------------|--------------|--------------|--------------|


                               
--3--1--------|--------------||
--------3--0--|--1-----1-----||
--2--------0--|-----0-------*||
--3-----------|--2-----2----*||
--------------|--3-----3-----||
--------------|--------------||

Transcribed by Martin Altenbeck
MartinAltenbeck@web.de

        
https://primanota.ru/fernando-sor/etude-no-1-op-60-chords.htm

Привет, гитарист!

Тебе подарок от сайта PrimaNota.ru

Забрать подарок
ВАМ ПОДАРКИ ОТ ПРОЕКТА
"ГИТАРНАЯ РЕВОЛЮЦИЯ"