Войти:  Facebook Google Twitter Vk Yandex Mail.ru
PrimaNota.ru - самый крупный в мире бесплатный архив песенных текстов, аккордов, табулатур и нот


Fall Out Boy - We Were Doomed From The Start - табы


song: We Were Doomed From The Start
artist: Fall Out Boy
album: Pax AM Days
tabber: toast

intro
guitar 1
e|------------------------------|
b|------------------------------|
g|------------------------------|
d|------------------------------|
a|-2-2-2----4-3-0~-1-1-1-1-1-1--|x3
e|-------3~---------------------|

guitar 2 joins in on the third time playing the same thing

then
guitar 1 & 2
e|-------------------------------|
b|-------------------------------|
g|-------------------------------|
d|-------------------------------|
a|-2-2-2-1-1-1-0-0-0-------------|
e|-------------------4-4-4-3-3-2-|

verse
both guitars
"the king is dead..."
e|---------------------------------------------------------|
b|---------------------------------------------------------|
g|---------------------------------------------------------|
d|-9-9--9-9-9--9-9-9--9-9-9--9-9-9--9-9-9--9-9-9-9-8-8-7-7-|
a|-9-9--9-9-9--9-9-9--9-9-9--9-9-9--9-9-9--9-9-9-9-8-8-7-7-|
e|-7-7--7-7-7--7-7-7--7-7-7--7-7-7--7-7-7--7-7-7-7-6-6-5-5-|

e|---------------------------------------------------------|
b|---------------------------------------------------------|
g|---------------------------------------------------------|
d|-9-9--9-9-9--9-9-9--9-9-9--9-9-9--9-9-9--5-5-5-5-6-6-6-6-|
a|-9-9--9-9-9--9-9-9--9-9-9--9-9-9--9-9-9--5-5-5-5-6-6-6-6-|
e|-7-7--7-7-7--7-7-7--7-7-7--7-7-7--7-7-7--3-3-3-3-4-4-4-4-|

chorus
e|-----------------------------------------------------|
b|-----------------------------------------------------|
g|-7~-7-7-7-7-7----------------------------------------|
d|-7~-7-7-7-7-7-7-7-7-7-7-7-7-9-9--9-9-9--9-9-9--9-9-9-|
a|-5~-5-5-5-5-5-7-7-7-7-7-7-7-9-9--9-9-9--9-9-9--9-9-9-|
e|--------------5-5-5-5-5-5-5-7-7--7-7-7--7-7-7--7-7-7-|
repeat that
after repeat
e|------------------------------|
b|------------------------------|
g|-7~-7-7-7-7-7-9-9-9-9-9-9-9-9-|
d|-7~-7-7-7-7-7-9-9-9-9-9-9-9-9-|
a|-5~-5-5-5-5-5-7-7-7-7-7-7-7-7-|
e|------------------------------|

before verse
guitar 1 plays intro
guitar 2
e|---------------------|
b|---------------------|
g|---------------------|
d|-2~~~~~--------------|
a|-2~~~~~--------------|
e|-0~~~~~--------------|

repeat verse and chorus
on last chorus after you repeat the first time, instead of going to the ending part 
thats different do this
e|----------------------------------------------|
b|----------------------------------------------|
g|-7~-7-7-7-7-7-9-9-9-9-9-9-9-9-----------------|
d|-7~-7-7-7-7-7-9-9-9-9-9-9-9-9-9-9\slide down--|
a|-5~-5-5-5-5-5-7-7-7-7-7-7-7-7-9-9\------------|
e|------------------------------7-7\------------|   
https://primanota.ru/fall-out-boy/we-were-doomed-from-start-chords.htm

Привет, гитарист!

Тебе подарок от сайта PrimaNota.ru

Забрать подарок
ВАМ ПОДАРКИ ОТ ПРОЕКТА
"ГИТАРНАЯ РЕВОЛЮЦИЯ"