Войти:  Facebook Google Twitter Vk Yandex Mail.ru
PrimaNota.ru - самый крупный в мире бесплатный архив песенных текстов, аккордов, табулатур и нот


Fall Out Boy - Hand Of God - текст песни, табы, бас-таба

Печатать
ViraMusic 2019 в Петербурге 4 апреля 2019! Скидка 10%!

Hand Of God

  • аккорды, текст
  • gtp-табы

-------------------------------------------------------------------------------
                             Hand Of God - Fall out Boy
-------------------------------------------------------------------------------
Tabbed by: Mychi Hoang
Email: keroduo@aol.com

Tuning: Standard (EADGBe)

I saw that no one had this tab up, so I decided to tab it. This is my first tab, so please email 

me any corrections. I'm pretty sure this is correct. If not, this should give you the general 

idea of how it's played.

| /  slide up
| \  slide down
| h  hammer-on
| p  pull-off
| ~  vibrato
| +  harmonic
| x  Mute note


Intro:
(Been gone more days this year than I have been home.....)
e|----------------------------------------------------------------|
B|----------------------------------------------------------------|
G|------------------------------------------------------7--7--6---|
D|-11--------6--6---7-------2--2--6--6---7------2-------7--7--6---|
A|-11-(x10)--6--6---7-(x5)--2--2--6--6---7-(x5)-2-(x5)--5--5--4---|
E|--9--------4--4---5-------0--0--4--4---5------0-----------------|


Verse 1:

Guitar 1:
e|-------4-4-------4-4-----2-----------2-2---------2-2-----2-4-5-4-|
B|-5-5-2-----2-5-5-----2-5---5---5-5-2-----2-5-5-2-----2-5---------|
G|-----------------------------------------------------------------|
D|-----------------------------------------------------------------|  (x2)
A|-----------------------------------------------------------------|
E|-----------------------------------------------------------------|

Guitar 2:
e|----------------------------|
B|----------------------------|
G|----------------------------|
D|-11--------7-------2--------| (x2)
A|-11-(x15)--7-(x5)--2-(x5)---|
E|--9--------5-------0--------|


Verse 2:
(Been gone more days this year than I have been home, trading friends for...)
e|----------------------------------------------------------------|
B|----------------------------------------------------------------|
G|------------------------------------------------------7--7--6---|
D|-11--------6--6---7-------2--2--6--6---7------2-------7--7--6---|
A|-11-(x10)--6--6---7-(x5)--2--2--6--6---7-(x5)-2-(x5)--5--5--4---|
E|--9--------4--4---5-------0--0--4--4---5------0-----------------|


Pre Chorus:
(It's not gossip if it's the truth....) 
e|---------------------------------------------------------------------|
B|---------------------------------------------------------------------|
G|---------------------------------------------------------------------|
D|-----4-2-----------4-2-----------4-2-----------11-11--9--9--9--7-----|
A|---0-----2-------0-----2-------0-----2---------11-11--9--9--9--7-----|
E|-2---------0-1-2---------0-1-2---------0-1------9--9--7--7--7--5-----|


Chorus:
(So which is it, the boy who writes the songs or the boy who's in them...)
e|---------------------------------------------------------------------------------|
B|--------------------------5-5-5-4-4-4-5-5-4--------------------------------------|
G|----------------------------------------------------------------6-6--4-----------|
D|-2-------6-------7------------------------------2-------6-------6-6--4--7--------|
A|-2-(x8)--6-(x8)--7-(x3)-------------------------2-(x8)--6-(x8)--4-4--2--7-(x8)---|
E|-0-------4-------5------------------------------0-------4---------------5--------|

Verse 1- x2
Verse 2- x1
Pre Chorus

Chorus 2:
e|---------------------------------------------|           e|---------------------------------|
B|--------------------------5-5-5-4-4-4-5-5-4--|           B|---------------------------------|
G|---------------------------------------------|           G|----------------6-6--4-----------|
D|-2-------6-------7---------------------------| (x3)Then  D|2-------6-------6-6--4--7--------|
A|-2-(x8)--6-(x8)--7-(x3)----------------------|           A|2-(x8)--6-(x8)--4-4--2--7--------|
E|-0-------4-------5---------------------------|           E|0-------4---------------5--------|


Bridge:
e|---------|
B|---------|
G|-9-------|
D|-7-(x12)-|
A|-7-------|
E|---------|

(So which is and which isn't...)
e|-------------------------|             e|--------------|
B|-------------------------|             B|--------------|
G|-9-----------------------|             G|-9------------|
D|-9-(x8)--9-------4-------| (x3)  Then  D|-9-(x8)--9--4-|
A|-7-------9-(x8)--4-(x8)--|             A|-7-------9--4-|
E|---------7-------2-------|             E|---------7--2-|

(So who's the girl, is this truth, or is he writing fiction...)
e|-------------------|
B|-------------------|
G|-------------------|
D|-2------6------7---|
A|-2------6------7---|
E|-0------4------5---|


End Chorus:
e|----------------------------------------------------------------|
B|----------------------------------------------------------------|
G|---------------------------------------------- 6-6--4-----------|
D|-2-------6-------7-------------2-------6-------6-6--4--7--------|
A|-2-(x8)--6-(x8)--7-(x15)-------2-(x8)--6-(x8)--4-4--2--7-(x20)--|
E|-0-------4-------5-------------0-------4---------------5--------|


===============================================================================
   
https://primanota.ru/fall-out-boy/hand-of-god-chords.htm

Привет, гитарист!

Тебе подарок от сайта PrimaNota.ru

Забрать подарок
ВАМ ПОДАРКИ ОТ ПРОЕКТА
"ГИТАРНАЯ РЕВОЛЮЦИЯ"