Войти:  Facebook Google Twitter Vk Yandex Mail.ru
PrimaNota.ru - самый крупный в мире бесплатный архив песенных текстов, аккордов, табулатур и нот


Fall Out Boy - Golden Live - табы

Печатать
ViraMusic 2019 в Петербурге 4 апреля 2019! Скидка 10%!

Golden Live


here it is. what youve been waiting for.

Tuning: Drop D

GUitar 1-Clean
Guitar 2-Distorted


Intro

GUitar 2
E|---------------------------|
B|---------------------------|
G|-xxx55---------------------|
D|-xx555-3333-5555-6666-1111-|
A|-33333-3333-5555-6666-1111-|
E|-xxxx--3333-5555-6666-1111-|
PM.....

2nd part of Intro

GUitar 2
E|---------------------|
B|---------------------| x2
G|---------------------|
D|-3333-5555-6666-1111-|
A|-3333-5555-6666-1111-|
E|-3333-5555-6666-1111-|

Guitar 1

E|--8-8--8-8--8-8--8-8-|
B|-9-9--8-8--9-9--8-8--| x2
G|---------------------|
D|---------------------|
A|---------------------|
E|---------------------|

Last part of intro

Guitar 2
E|---------------------|
B|---------------------| 
G|---------------------|
D|-3333-5555-6666-1111-|
A|-3333-5555-6666-1111-|
E|-3333-5555-6666-1111-|

Guitar 1
E|---------------------|
B|-9~~~~~~~~~~~~~------|
G|---------------------|
D|---------------------|
A|---------------------|
E|---------------------|

Verse

GUitar 1
E|---------------------------------------------------------------|
B|---------------------------------------------------------------|
G|-5----5----5555555----------66666666----33/5-6666666-----------|
D|-55555555555555555-66666666-66666666-66-33/5-6666666-333333333-|
A|-33333333333333333-66666666-44444444-66x11/3-4444444-333333333-|
E|-------------------66666666----------66x-------------333333333-|

Pre-Chorus

Guitar 1
E|----------------------------------------------------------------------|
B|----------------------------------------------------------------------|
G|-66666666----------66666666----------66666666-------------------------|
D|-66666666-66666666-66666666-66666666-66666666-66666666-33333333333333-|
A|-44444444-66666666-44444444-66666666-44444444-66666666-33333333333333-|
E|----------66666666----------66666666----------66666666-33333333333333-|

Chorus G1
GUitar 1
E|---------------------------------------------------------------|
B|---------------------------------------------------------------|
G|-----------------------------------------------------------6\5-|
D|-3333-5555-6666-1111-3333-5555-6666-1111-333-5555-6666-111/6\5-|
A|-3333-5555-6666-1111-3333-5555-6666-1111-333-5555-6666-111/4\3-|
E|-3333-5555-6666-1111-3333-5555-6666-1111-333-5555-6666-111-----|

Verse 

Prechorus

Chorus Guitar 2+Intro GUitar 1


   
https://primanota.ru/fall-out-boy/golden-live-chords.htm

Привет, гитарист!

Тебе подарок от сайта PrimaNota.ru

Забрать подарок
ВАМ ПОДАРКИ ОТ ПРОЕКТА
"ГИТАРНАЯ РЕВОЛЮЦИЯ"