Войти:  Facebook Google Twitter Vk Yandex Mail.ru
PrimaNota.ru - самый крупный в мире бесплатный архив песенных текстов, аккордов, табулатур и нот


Fall Out Boy - Gareth Lord Of The Gay - табы

Печатать
ViraMusic 2019 в Петербурге 4 апреля 2019! Скидка 10%!

Gareth Lord Of The Gay

  • аккорды, текст

Song about how a kid i know drives me crazy 
(words added at bottom of each tab)
and by the way if by any chance u see this gareth,
now u kno me and everyone elses feelings toward u

|-----------------------------------------------|
|-----------------------------------------------|
|-----------3-3-3-3----------------5-5-5-5------|
|-5-5-5-5---3-3-3-3---3-3-3-3------5-5-5-5------|
|-5-5-5-5---1-1-1-1---3-3-3-3------3-3-3-3------|
|-3-3-3-3-------------1-1-1-1-------------------|
 Gareth is a poser, and a goat fucking loser

|-----------------------------------------------|
|-----------------------------------------------|
|-----------3-3-3-3----------------5-5-5-5------|
|-5-5-5-5---3-3-3-3---3-3-3-3------5-5-5-5------|
|-5-5-5-5---1-1-1-1---3-3-3-3------3-3-3-3------|
|-3-3-3-3-------------1-1-1-1-------------------|
He thinks he so cool, he's probably a drug abuser

|-----------------------------------------------|
|-----------------------------------------------|
|-----------3-3-3-3-----------------------------|
|-5-5-5-5---3-3-3-3---4-4-4-4---2-2-2-2---------|
|-5-5-5-5---1-1-1-1---4-4-4-4---2-2-2-2---------|
|-3-3-3-3-------------2-2-2-2---0-0-0-0---------|
He copies everything i do, he's sucha fucking dick

|-----------------------------------------------|
|-----------------------------------------------|
|-----------3-3-3-3-----------------------------|
|-5-5-5-5---3-3-3-3---4-4-4-4---2-2-2-2---------|
|-5-5-5-5---1-1-1-1---4-4-4-4---2-2-2-2---------|
|-3-3-3-3-------------2-2-2-2---0-0-0-0---------|
i bet he'll get boned in the ass, by a prostitute named Rick

|-----------------------------------------------|
|-----------------------------------------------|
|-6--6---4--4--2--2--1~~~~----------------------|
|-7--7---5--5--3--3--2~~~~----------------------|
|-7--7---5--5--3--3--2~~~~----------------------|
|-5--5---3--3--1--1--0~~~~----------------------|
Gareth you a little prick........   
https://primanota.ru/fall-out-boy/gareth-lord-of-the-gay-chords.htm

Привет, гитарист!

Тебе подарок от сайта PrimaNota.ru

Забрать подарок
ВАМ ПОДАРКИ ОТ ПРОЕКТА
"ГИТАРНАЯ РЕВОЛЮЦИЯ"