Войти:  Facebook Google Twitter Vk Yandex Mail.ru
PrimaNota.ru - самый крупный в мире бесплатный архив песенных текстов, аккордов, табулатур и нот


Every Time I Die - It Remembers - таба, видео

Печатать
Просмотров: 80
Лучшая metal-группа Петербурга

It Remembers

  • аккорды и текст

Every Time I Die - It Remembers

Album: Low Teens
Tuning: Drop C

(/) Slide Up  (\) Slide Down  (.) Palm Muted   (v) Vibrato

Intro:

D|--------------------------------------------------------------------|
A|--------------------------------------------------------------------|
G|--------------------------------------------------------------------|
C|--------------------------------------------------------------5-----|
G|---1/8---------------8\1--------------1/8---------------8\1-----8---|
C|-5-----0-5-3/8-5\3/5-----0-3-5-8-5--------0-5-3/8-5\3/5-----0-------|


Interlude:

D|------------------------------------------------------|
A|------------------------------------------------------|
G|------------------------------------------------------|
C|-5----7-7-7-7-7-7-7-7-7-7-7-7-7-7-7-7-7-7-7-7-7-7-7-7-|
G|-5----5-5-5-5-5-5-5-5-5-5-5-5-4-4-4-4-4-4-4-4-4-4-4-4-|
C|-5----------------------------------------------------|


Main Riff:

D|--------------------------------------------------------------------------|
A|--------------------------------------------------------------------------|
G|--------------------------------------------------------------------------|
C|-5---------------------------------5--------------------------------------|
G|-5---8v---------------8------------5------8v---------------8--------------|
C|-5-8----0-5-3-8-5\3/5---8v-0-3-5-8-5----8----0-5-3-8-5\3/5---8v-0-3-5-8---|


D|--------------------------------------------------------------------------|
A|--------------------------------------------------------------------------|
G|--------------------------------------------------------------------------|
C|-5---------------------------------5--------------------------------------|
G|-5---8v---------------8------------5------8v---------------8--------------|
C|-5-8----0-5-3-8-5\3/5---8v-0-3-5-8-5----8----0-5-3-8-5\3/5---8v-0-3-5-8---|


Bridge:

D|-------------------------------------------------|
A|-------------------------------------------------|
G|-------------------------------------------------|
C|-7-7-7-7-7-7-7-7-7-7-7-7-7-7-7-7-7-7-7-7-7-7-7-7-|
G|-5-5-5-5-5-5-5-5-5-5-5-5-4-4-4-4-4-4-4-4-4-4-4-4-|
C|-------------------------------------------------|


Chorus:

D|-------------------------------------------------------------------------|
A|-------------------------------------------------------------------------|
G|-------------------------------------------------------------------------|
C|-8----8----8-5-8-5-8----8----8-5-0----8----8----8-5-8-5-8----0----3----5-|
G|-8----8----8-5-8-5-8----8----8-5-0----8----8----8-5-8-5-8----0----3----5-|
C|-8----8----8-5-8-5-8----8----8-5-0----8----8----8-5-8-5-8----0----3----5-|
                                                               .    .    .
 
D|-----------------------------------------------------------------|
A|-----------------------------------------------------------------|
G|-----------------------------------------------------------------|
C|-8----8----8-5-8-5-8----8----8-5-0----8----8----8-5-8-5-8--7-7-0-|
G|-8----8----8-5-8-5-8----8----8-5-0----8----8----8-5-8-5-8--5-4-0-|
C|-8----8----8-5-8-5-8----8----8-5-0----8----8----8-5-8-5-8------0-|


D|--------------------------------------------------------------------|
A|--------------------------------------------------------------------|
G|--------------------------------------------------------------------|
C|-5----5----5-3-5-3-5----5----5-3-0----5----5----5-3-5-3-5----0----3-|
G|-5----5----5-3-5-3-5----5----5-3-0----5----5----5-3-5-3-5----0----3-|
C|-5----5----5-3-5-3-5----5----5-3-0----5----5----5-3-5-3-5----0----3-|
                                                               .

D|-----------------------------------------------------------------|
A|-----------------------------------------------------------------|
G|-----------------------------------------------------------------|
C|-5----5----5-3-5-3-5----5----5-3-0----5----5----5-3-5-3-5--7-7-0-|
G|-5----5----5-3-5-3-5----5----5-3-0----5----5----5-3-5-3-5--5-4-0-|
C|-5----5----5-3-5-3-5----5----5-3-0----5----5----5-3-5-3-5------0-|


D|-------------------------------------------------|
A|-------------------------------------------------|
G|-------------------------------------------------|
C|-7-7-7-7-7-7-7-7-7-7-7-7-7-7-7-7-7-7-7-7-7-7-7-7-|
G|-5-5-5-5-5-5-5-5-5-5-5-5-4-4-4-4-4-4-4-4-4-4-4-4-|
C|-------------------------------------------------|


Re-Intro:

D|-----------------------------------|
A|-----------------------------------|
G|-----------------------------------|
C|---------------------------5-------|
G|---1/8---------------8\1-----8-----|
C|-5-----0-5-3/8-5\3/5-----0---------|


Main Riff Variation GTR01:

D|----------------------------------------|
A|----------------------------------------|
G|----------------------------------------|
C|-5--------------------------------------|
G|-5------8v---------------8--------------|
C|-5----8----0-5-3-8-5\3/5---8v-0-3-5-8---|


Main Riff Variation GTR02:

D|----------------------------------------|
A|----------------------------------------|
G|----------------------------------------|
C|--------10v---------------10------------|
G|-5----8-----0-5-3-8-5\3/5----8v-0-3-5-8-|
C|----------------------------------------|


Urie's part:

D|-------------------------------------------------------------------------|
A|-------------------------------------------------------------------------|
G|-------------------------------------------------------------------------|
C|-7-7-7-7-7-7-7-7-7-7-7-7-7-7-7-7-7-7-7-7-7-7-7-7-8-8-8-8-8-8-8-8-8-8-8-8-|
G|-5-5-5-5-5-5-5-5-5-5-5-5-4-4-4-4-4-4-4-4-4-4-4-4-8-8-8-8-8-8-8-8-8-8-8-8-|
C|-------------------------------------------------8-8-8-8-8-8-8-8-8-8-8-8-|


D|-------------------------|
A|-------------------------|
G|-------------------------|
C|-------------------------|
G|-------1-----------8-----|
C|-0-3-5---5-3-0-5-8---5-8-|


D|-------------------------------------------------|
A|-------------------------------------------------|
G|-------------------------------------------------|
C|-7-7-7-7-7-7-7-7-7-7-7-7-7-7-7-7-7-7-7-7-7-7-7-7-|
G|-5-5-5-5-5-5-5-5-5-5-5-5-4-4-4-4-4-4-4-4-4-4-4-4-|
C|-------------------------------------------------|


D|-------------------------|
A|-------------------------|
G|-------------------------|
C|-5-5-3-5-0-3-5-5-3-5-8-0-|
G|-5-5-3-5-0-3-5-5-3-5-8-0-|
C|-5-5-3-5-0-3-5-5-3-5-8-0-|


D|-------------------------------------------------------------------------|
A|-------------------------------------------------------------------------|
G|-------------------------------------------------------------------------|
C|-7-7-7-7-7-7-7-7-7-7-7-7-7-7-7-7-7-7-7-7-7-7-7-7-8-8-8-8-8-8-8-8-8-8-8-8-|
G|-5-5-5-5-5-5-5-5-5-5-5-5-4-4-4-4-4-4-4-4-4-4-4-4-8-8-8-8-8-8-8-8-8-8-8-8-|
C|-------------------------------------------------8-8-8-8-8-8-8-8-8-8-8-8-|

GTR01:                     GTR02: 

D|-------------------------|-----------------------------------|
A|-------------------4-----|--------------------------11-------|
G|-------3---------3---0-3-|---------10-------0-10-12----10-12-|
C|-0-3-5---5-3-0-5---------|-0-10-12----12-10------------------|
G|-------------------------|-----------------------------------|
C|-------------------------|-----------------------------------|


D|-------------------------------------------------|
A|-------------------------------------------------|
G|-------------------------------------------------|
C|-7-7-7-7-7-7-7-7-7-7-7-7-7-7-7-7-7-7-7-7-7-7-7-7-|
G|-5-5-5-5-5-5-5-5-5-5-5-5-4-4-4-4-4-4-4-4-4-4-4-4-|
C|-------------------------------------------------|


D|-------------------------------------------------|
A|-------------------------------------------------|
G|-------------------------------------------------|
C|-5-5-3-5-0-3-5-5-3-5-8-0-5-5-3-5-0-3-5-5-3-5-8-0-|
G|-5-5-3-5-0-3-5-5-3-5-8-0-5-5-3-5-0-3-5-5-3-5-8-0-|
C|-5-5-3-5-0-3-5-5-3-5-8-0-5-5-3-5-0-3-5-5-3-5-8-0-|


Part B:

D|-------------------------------------------------|
A|-------------------------------------------------|
G|-------------------------------------------------|
C|-5-5-3-5-0---5-5-3-5-8---5-5-3-5-0---5-5-3-5-10--|
G|-5-5-3-5-0---5-5-3-5-8---5-5-3-5-0---5-5-3-5-10--|
C|-5-5-3-5-0---5-5-3-5-8---5-5-3-5-0---5-5-3-5-10--|


D|-------------------------|
A|-------------------------|
G|-------------------------|
C|-5-5-3-5---3-5-5-3-5-8---|
G|-5-5-3-5---3-5-5-3-5-8---|
C|-5-5-3-5---3-5-5-3-5-8---|


D|-------------------------|
A|-------------------------|
G|-------------------------|
C|-------------------------|
G|-------1-----------8-----|
C|-0-3-5---5-3-0-5-8---5-8-|


Part C:

D|------------|
A|------------|
G|------------|
C|-5----------|
G|-5-----8----|
C|-5-------8v-|

D|------------|
A|------------|
G|------------|
C|-5----------|
G|-5-----8----|
C|-5-------8v-|

D|------------|
A|------------|
G|------------|
C|-5----------|
G|-5-----8----|
C|-5-------8v-|

D|------------|
A|------------|
G|------------|
C|-5----------|
G|-5-----8----|
C|-5-------8v-|


Bridge:

D|--------------------------------------------------------------------|
A|--------------------------------------------------------------------|
G|--------------------------------------------------------------------|
C|--------------------------------------------------------------------|
G|---1/8---------------8\1--------------1/8---------------8\1---------|
C|-5-----0-5-3/8-5\3/5-----0-3-5-8-5--------0-5-3/8-5\3/5-----0-------|



Chorus:

D|-------------------------------------------------------------------------|
A|-------------------------------------------------------------------------|
G|-------------------------------------------------------------------------|
C|-8----8----8-5-8-5-8----8----8-5-0----8----8----8-5-8-5-8----0----3----5-|
G|-8----8----8-5-8-5-8----8----8-5-0----8----8----8-5-8-5-8----0----3----5-|
C|-8----8----8-5-8-5-8----8----8-5-0----8----8----8-5-8-5-8----0----3----5-|
                                                               .    .    .
 
D|-----------------------------------------------------------------|
A|-----------------------------------------------------------------|
G|-----------------------------------------------------------------|
C|-8----8----8-5-8-5-8----8----8-5-0----8----8----8-5-8-5-8--7-7-0-|
G|-8----8----8-5-8-5-8----8----8-5-0----8----8----8-5-8-5-8--5-4-0-|
C|-8----8----8-5-8-5-8----8----8-5-0----8----8----8-5-8-5-8------0-|


D|--------------------------------------------------------------------|
A|--------------------------------------------------------------------|
G|--------------------------------------------------------------------|
C|-5----5----5-3-5-3-5----5----5-3-0----5----5----5-3-5-3-5----0----3-|
G|-5----5----5-3-5-3-5----5----5-3-0----5----5----5-3-5-3-5----0----3-|
C|-5----5----5-3-5-3-5----5----5-3-0----5----5----5-3-5-3-5----0----3-|
                                                               .

D|-----------------------------------------------------------------|
A|-----------------------------------------------------------------|
G|-----------------------------------------------------------------|
C|-5----5----5-3-5-3-5----5----5-3-0----5----5----5-3-5-3-5--7-7-0-|
G|-5----5----5-3-5-3-5----5----5-3-0----5----5----5-3-5-3-5--5-4-0-|
C|-5----5----5-3-5-3-5----5----5-3-0----5----5----5-3-5-3-5------0-|


D|-------------------------------------------------|
A|-------------------------------------------------|
G|-------------------------------------------------|
C|-7-7-7-7-7-7-7-7-7-7-7-7-7-7-7-7-7-7-7-7-7-7-7-7-|
G|-5-5-5-5-5-5-5-5-5-5-5-5-4-4-4-4-4-4-4-4-4-4-4-4-|
C|-------------------------------------------------|

D|-------------------------------------------------|
A|-------------------------------------------------|
G|-------------------------------------------------|
C|-7-7-7-7-7-7-7-7-7-7-7-7-7-7-7-7-7-7-7-7-7-7-7-7-|
G|-5-5-5-5-5-5-5-5-5-5-5-5-4-4-4-4-4-4-4-4-4-4-4-4-|
C|-------------------------------------------------|



Main Riff Variation 2:

D|-----------------------------------|
A|-----------------------------------|
G|-----------------------------------|
C|-5-8-10-0-5-3-8-5-3-5-10-8-0-3-5-8-|
G|-5-8-8--0-5-3-8-5-3-5-8--8-0-3-5-8-|
C|-5-8----0-5-3-8-5\3/5----8-0-3-5-8-|

D|-------------------------------------|
A|-------------------------------------|
G|-------------------------------------|
C|-5---8-10-0-5-3-8-5-3-5-10-8-0-3-5-8-|
G|-5---8-8--0-5-3-8-5-3-5-8--8-0-3-5-8-|
C|-5---8----0-5-3-8-5\3/5----8-0-3-5-8-|


Outro:

D|-------------------------------------|
A|-------------------------------------|
G|-------------------------------------|
C|-noise----5----------------\---------|
G|----------5----------------\---------|
C|----------5----------------\---------|



Добавлено: 01.06.2018
Другие материалы по этой песне:
  • Аккорды и текст

Страница создана 01.06.2018
https://primanota.ru/every-time-i-die/it-remembers-chords.htm

Привет, гитарист!

Тебе подарок от сайта PrimaNota.ru

Забрать подарок
ВАМ ПОДАРКИ ОТ ПРОЕКТА
"ГИТАРНАЯ РЕВОЛЮЦИЯ"