Войти:  Facebook Google Twitter Vk Yandex Mail.ru
PrimaNota.ru - самый крупный в мире бесплатный архив песенных текстов, аккордов, табулатур и нот


Every Time I Die - Cheap Ludes - таба, видео

Печатать
Просмотров: 59
Лучшая metal-группа Петербурга

Cheap Ludes

  • аккорды и текст

----------------------------------
  Cheap Ludes - Every Time I Die
----------------------------------
Tabbed by: millarso (Jake Miller)
E-mail: millarso2.0@gmail.com

Tuning: Drop D

Guitar 1: Left Stereo
Guitar 2: Right Stereo

SECTION 1
Guitar 1
E|-------------------------------------------------------------------|
B|-5-4-5-8----------5-4-5-8----------5-4-5-8----------5-4-5-8--------|
G|-x-x-x-x----------x-x-x-x----------x-x-x-x----------x-x-x-x--------|
D|-3-2-3-6----------3-2-3-6----------3-2-3-6----------3-2-3-6--------|
A|-------------------------------------------------------------------|
D|---------7-6-7------------7-6-7------------7-6-7------------7-6-7--|
||
Guitar 2
E|-------------------------------------------------------------------|
B|-5-4-5-8----------5-4-5-8----------5-4-5-8----------5-4-5-8--------|
G|-x-x-x-x----------x-x-x-x----------x-x-x-x----------x-x-x-x--------|
D|-3-2-3-6----------3-2-3-6----------3-2-3-6----------3-2-3-6--------|
A|----------------------------------------------------------------7~-|
D|---------7-6-7------------7-6-7------------7-6-7------------7-6----|

Both Guitars
E|-------------|
B|-5-4-5-8-----|
G|-x-x-x-x-----|
D|-3-2-3-6-7-6-|
A|---------7-6-|
D|---------7-6-|

SECTION 2
Guitar 1
E|--------------------------------|
B|--------------------------------|
G|--------------------------------|
D|-6--7-7-7-7-7-7-7-7-1-1-5-5-4-0-|x4
A|-6------------------1-1-5-5-4-0-|
D|-6------------------1-1-5-5-4-0-|
||
Guitar 2
E|--------------------------------|
B|--------------------------------|
G|--------------------------------|
D|-6------------------1-1-5-5-4-0-|x4
A|-6--5-5-5-5-5-5-5-5-1-1-5-5-4-0-|
D|-6------------------1-1-5-5-4-0-|

SECTION 3
Both Guitars
E|--------------------------------|
B|--------------------------------|
G|--------------------------------|
D|-2--2-2-2-2-2-2-2-2-------------|x3
A|-2--2-2-2-2-2-2-2-2-------------|
D|-2--2-2-2-2-2-2-2-2-8-5-8-0-5-4-|

E|-----------------------------------|
B|-----------------------------------|
G|--------------------------10-10-10-|
D|-2--2-2-2-2-2-2-2-2-------10-10-10-|
A|-2--2-2-2-2-2-2-2-2--------8--8--8-|
D|-2--2-2-2-2-2-2-2-2-8-5-8----------|

REPEAT SECTION 2

REPEAT SECTION 3

SECTION 4 (only play the ghost notes first time)
Guitar 1
E|-----------------------------------|
B|-(5)----------------5-4-5/8--------|
G|-(x)----------------x-x-x-x--------|
D|-(3)----------------3-2-3/6--------|x4
A|----0-0---0-0---0-0----------------|
D|----0-0---0-0---0-0---------7-6-7~-|
||    . .   . .   . .
Guitar 2
E|-----------------------------------|
B|-(5)----------------5-4-5/8--------|
G|-(x)----------------x-x-x-x--------|
D|-(3)----------------3-2-3/6--------|x4
A|----0-0-0-0-0-0-0-0----------------|
D|----0-0-0-0-0-0-0-0---------7-6-7~-|
      . . . . . . . .

SECTION 5
Both Guitars
E|------------------------------------------------------------|
B|-----------------------------5----------------5-4-5/8-------|
G|-----------------------------x----------------x-x-x-x-------|
D|-----------------------------3----------------3-2-3/6-------|
A|-----0-0--0-0--0-0--0-0--0-0----0-0--0-0--0-0---------------|
D|-(7)-0-0--0-0--0-0--0-0--0-0----0-0--0-0--0-0---------7-6-7-|

E|---------------------------------------------------------|
B|-------------------------5----------------5-4-5/8--------|
G|-------------------------x----------------x-x-x-x--------|
D|-------------------------3----------------3-2-3/6-----6\-|
A|-0-0--0-0--0-0--0-0--0-0----0-0--0-0--0-0-------------6\-|
D|-0-0--0-0--0-0--0-0--0-0----0-0--0-0--0-0---------7-6-6\-|

TRANSITION
E|-----------------------------|
B|-----------------------------|
G|-----------------------------|
D|-----------------1-1-5-5-4-0-|
A|-5-5-5-5-5-5-5-5-1-1-5-5-4-0-|
D|-----------------1-1-5-5-4-0-|

NOTE: The single 5s are played by a different guitar track with a bit of fuzz

REPEAT SECTION 2 (but only play the bar 3 times)

SECTION 6 (almost identical to 3)
Both Guitars
E|--------------------------------|
B|--------------------------------|
G|--------------------------------|
D|-2--2-2-2-2-2-2-2-2-------------|x3
A|-2--2-2-2-2-2-2-2-2-------------|
D|-2--2-2-2-2-2-2-2-2-8-5-8-0-5-4-|

E|--------------------------------------|
B|--------------------------------------|
G|--------------------------10-10-10-10-|
D|-2--2-2-2-2-2-2-2-2-------10-10-10-10-|
A|-2--2-2-2-2-2-2-2-2--------8--8--8--8-|
D|-2--2-2-2-2-2-2-2-2-8-5-8-------------|

SECTION 7
Both Guitars
E|----------------------------------------------------------|
B|-5-------------------------5----------------5-4-5/8-------|
G|-x-------------------------x----------------x-x-x-x-------|
D|-3-------------------------3----------------3-2-3/6-------|
A|---0-0--0-0--0-0--0-0--0-0----0-0--0-0--0-0---------------|
D|---0-0--0-0--0-0--0-0--0-0----0-0--0-0--0-0---------7-6-7-|
     . .  . .  . .  . .  . .    . .  . .  . . 

E|--------------------------------------------------------|
B|-------------------------5----------------5-4-5/8-------|
G|-------------------------x----------------x-x-x-x-------|
D|-------------------------3----------------3-2-3/6-------|
A|-0-0--0-0--0-0--0-0--0-0----0-0--0-0--0-0---------------|
D|-0-0--0-0--0-0--0-0--0-0----0-0--0-0--0-0---------7-6-7-|
   . .  . .  . .  . .  . .    . .  . .  . . 

E|----------------------------------------------------------------|
B|----------------------------------------------------------------|
G|----------------------------------------------------------------|
D|----------------------------------------------------------------|
A|-0-0--0-0--0-0--0-0----0-0--0-0--0-0--0-0----0-0--0-0--0-0--0-0-|
D|-0-0--0-0--0-0--0-0----0-0--0-0--0-0--0-0----0-0--0-0--0-0--0-0-|
   . .  . .  . .  . .    . .  . .  . .  . .    . .  . .  . .  . .

E|-------------------------------|
B|---------------5-4-5/8---------|
G|---------------x-x-x-x---------|
D|---------------3-2-3/6---------|
A|-0-0--0-0--0-0-----------------|
D|-0-0--0-0--0-0---------7-6-7~\-|
   . .  . .  . . 

That's all. In all honesty, some of those dissonances were pretty hard
to make out, so if anything sounds off to you, feel free to let me know
and I will take it into consideration.
Please rate and comment
Enjoy,
millarso

************************************

| .   palm mute
| /   slide up
| \   slide down
| h   hammer-on
| p   pull-off
| ~   vibrato
| +   harmonic
| x   Mute note
| b   Bend
| pb  Pre-bend
| br  Bend release
| pbr Pre-bend release
| brb Bend release bend

************************************
Добавлено: 01.06.2018
Другие материалы по этой песне:
  • Аккорды и текст

Страница создана 01.06.2018
https://primanota.ru/every-time-i-die/cheap-ludes-chords.htm

Привет, гитарист!

Тебе подарок от сайта PrimaNota.ru

Забрать подарок
ВАМ ПОДАРКИ ОТ ПРОЕКТА
"ГИТАРНАЯ РЕВОЛЮЦИЯ"