Войти:  Facebook Google Twitter Vk Yandex Mail.ru
PrimaNota.ru - самый крупный в мире бесплатный архив песенных текстов, аккордов, табулатур и нот


Every Time I Die - 1977 - табы, видео

Печатать
Лучшая metal-группа Петербурга

1977

  • аккорды и текст

Artist: Every Time I Die 
Song: 1977

Album: Low Teens
Tuning: Drop C

[Intro]

D|-----------------|-----------------------|
A|-----------------|-----------------------|
F|-8----7----------|-----------------------|
C|-8----7----------|-8----------8----10----|
G|-----------0-0-0-|-8----0-0-0-8----10----|
C|-----------0-0-0-|-8----0-0-0-8----10----|
             . . .        . . .

[Main Riff]

D|------------|----------------------|-------------------------|
A|------------|----------------------|-------------------------|
F|------------|----------------------|-------------------------|
C|------------|----------------------|-------------------------|
G|-9p8r0------|----------------------|-9p8r0-------------------|
C|-------8h10-|-10-10-10-10-10-10-10-|-------8h10--0-0-0-0-0-0-|
                .  .  .  .  .  .  .                . . . . . .

D|-----------------------|----------------------|
A|-----------------------|----------------------|
F|-10----9----8----------|-8----8---------------|
C|-10----9----8----------|-8----8---------------|
G|-----------------0-0-0-|-----------0-0-0------|
C|-----------------0-0-0-|-----------0-0-0-0----|
                   . . .             . . .

D|------------|----------------------|-------------------------|
A|------------|----------------------|-------------------------|
F|------------|----------------------|-------------------------|
C|------------|----------------------|-------------------------|
G|-9p8r0------|----------------------|-9p8r0-------------------|
C|-------8h10-|-10-10-10-10-10-10-10-|-------8h10--0-0-0-0-0-0-|
                .  .  .  .  .  .  .                . . . . . .

D|-----------------|-----------------------|
A|-----------------|-----------------------|
F|-8----7----------|-----------------------|
C|-8----7----------|-8----------8----10----|
G|-----------0-0-0-|-8----0-0-0-8----10----|
C|-----------0-0-0-|-8----0-0-0-8----10----|
             . . .        . . .

D|------------|----------------------|-------------------------|
A|------------|----------------------|-------------------------|
F|------------|----------------------|-------------------------|
C|------------|----------------------|-------------------------|
G|-9p8r0------|----------------------|-9p8r0-------------------|
C|-------8h10-|-10-10-10-10-10-10-10-|-------8h10--0-0-0-0-0-0-|
                .  .  .  .  .  .  .                . . . . . .

D|-----------------------|----------------------|
A|-----------------------|----------------------|
F|-10----9----8----------|-8----8---------------|
C|-10----9----8----------|-8----8---------------|
G|-----------------0-0-0-|-----------0-0-0------|
C|-----------------0-0-0-|-----------0-0-0-0----|
                   . . .             . . .

D|------------|----------------------|-------------------------|
A|------------|----------------------|-------------------------|
F|------------|----------------------|-------------------------|
C|------------|----------------------|-------------------------|
G|-9p8r0------|----------------------|-9p8r0-------------------|
C|-------8h10-|-10-10-10-10-10-10-10-|-------8h10--0-0-0-0-0-0-|
                .  .  .  .  .  .  .                . . . . . .

[Bridge A]

D|-3p2r0----------------------------|
A|-------3p2r0----------------------|
F|-------------3p2r0----------------|
C|-------------------1----2----4----|
G|-------------------1----2----4----|
C|-------------------1----2----4----|


[Chorus]

D|-----------------------------------|
A|-----------------------------------|
F|-----------------------------------|
C|-6-6------6-6------6-6------2----2-|
G|-6-6----0-6-6----0-6-6----0-2----2-|
C|-6-6----0-6-6----0-6-6----0-2----2-|


D|-----------------------------------|
A|-----------------------------------|
F|-----------------------------------|
C|-6-6------6-6------5--4--------2---|
G|-6-6----0-6-6----0-3--2--0-0-0-2---|
C|-6-6----0-6-6----0-------0-0-0-2---|
                           . . .

D|-----------------------------------|
A|-----------------------------------|
F|-----------------------------------|
C|-6-6------6-6------6-6------2----2-|
G|-6-6----0-6-6----0-6-6----0-2----2-|
C|-6-6----0-6-6----0-6-6----0-2----2-|


D|-------------------|-------------------------|-------------------------------------|
A|-------------------|-------------------------|-------------------------------------|
F|-------------------|-------------------------|-------------------------------------|
C|-6-6------6-6------|-------------------------|-------------------------------------|
G|-6-6----0-6-6----0-|-6p5r0-------3p2r0-------|-------------------------------------|
C|-6-6----0-6-6----0-|-------6p5r0-------3p2r0-|-1-1-2-2-4-4-4-4-2-2-3-3-5----5----5-|


D|-----------------------------------|
A|-----------------------------------|
F|-----------------------------------|
C|-6-6------6-6------6-6------2----2-|
G|-6-6----0-6-6----0-6-6----0-2----2-|
C|-6-6----0-6-6----0-6-6----0-2----2-|


D|-----------------------------------|
A|-----------------------------------|
F|-----------------------------------|
C|-6-6------6-6------5--4--------2---|
G|-6-6----0-6-6----0-3--2--0-0-0-2---|
C|-6-6----0-6-6----0-------0-0-0-2---|
                           . . .

D|-----------------------------------|
A|-----------------------------------|
F|-----------------------------------|
C|-6-6------6-6------6-6------2----2-|
G|-6-6----0-6-6----0-6-6----0-2----2-|
C|-6-6----0-6-6----0-6-6----0-2----2-|


D|-------------------|-------------------------|---------------------------------|
A|-------------------|-------------------------|---------------------------------|
F|-------------------|-------------------------|---------------------------------|
C|-6-6------6-6------|-------------------------|---------------------------------|
G|-6-6----0-6-6----0-|-6p5r0-------3p2r0-------|---------------------------------|
C|-6-6----0-6-6----0-|-------6p5r0-------3p2r0-|-1-1-2-2-4-4-4-4-2-2-3-3-5-5-5-5-|


[Bridge B]

D|-3p2r0-------------|
A|-------3p2r0-------|
F|-------------3p2r0-|
C|-------------------|
G|-------------------|
C|-------------------|


[Main Riff]

D|------------|----------------------|-------------------------|
A|------------|----------------------|-------------------------|
F|------------|----------------------|-------------------------|
C|------------|----------------------|-------------------------|
G|-9p8r0------|----------------------|-9p8r0-------------------|
C|-------8h10-|-10-10-10-10-10-10-10-|-------8h10--0-0-0-0-0-0-|
                .  .  .  .  .  .  .                . . . . . .

D|-----------------------|----------------------|
A|-----------------------|----------------------|
F|-10----9----8----------|-8----8---------------|
C|-10----9----8----------|-8----8---------------|
G|-----------------0-0-0-|-----------0-0-0------|
C|-----------------0-0-0-|-----------0-0-0-0----|
                   . . .             . . .

D|------------|----------------------|-------------------------|
A|------------|----------------------|-------------------------|
F|------------|----------------------|-------------------------|
C|------------|----------------------|-------------------------|
G|-9p8r0------|----------------------|-9p8r0-------------------|
C|-------8h10-|-10-10-10-10-10-10-10-|-------8h10--0-0-0-0-0-0-|
                .  .  .  .  .  .  .                . . . . . .

D|-----------------|-----------------------|
A|-----------------|-----------------------|
F|-8----7----------|-----------------------|
C|-8----7----------|-8----------8----10----|
G|-----------0-0-0-|-8----0-0-0-8----10----|
C|-----------0-0-0-|-8----0-0-0-8----10----|
             . . .        . . .

D|------------|----------------------|-------------------------|
A|------------|----------------------|-------------------------|
F|------------|----------------------|-------------------------|
C|------------|----------------------|-------------------------|
G|-9p8r0------|----------------------|-9p8r0-------------------|
C|-------8h10-|-10-10-10-10-10-10-10-|-------8h10--0-0-0-0-0-0-|
                .  .  .  .  .  .  .                . . . . . .

D|-----------------------|----------------------|
A|-----------------------|----------------------|
F|-10----9----8----------|-8----8---------------|
C|-10----9----8----------|-8----8---------------|
G|-----------------0-0-0-|-----------0-0-0------|
C|-----------------0-0-0-|-----------0-0-0-0----|
                   . . .             . . .

D|------------|----------------------|-------------------------|
A|------------|----------------------|-------------------------|
F|------------|----------------------|-------------------------|
C|------------|----------------------|-------------------------|
G|-9p8r0------|----------------------|-9p8r0-------------------|
C|-------8h10-|-10-10-10-10-10-10-10-|-------8h10--0-0-0-0-0-0-|
                .  .  .  .  .  .  .                . . . . . .

[Bridge C]

D|-------------------------|-------------------------------------|
A|-------------------------|-------------------------------------|
F|-------------------------|-------------------------------------|
C|-------------------------|-------------------------------------|
G|-6p5r0-------3p2r0-------|-------------------------------------|
C|-------6p5r0-------3p2r0-|-1----2----4-------2----3----5-------|
                                       *                 *

[Breakdown A]

D|----------------------------------------|
A|----------------------------------------|
F|----------------------------------------|
C|----------------------------------------|
G|-4----0-0-0-0-4----0-0-0-0-4----0-0-0-0-|
C|-3----0-0-0-0-3----0-0-0-0-3----0-0-0-0-|
        . . . .      . . . .      . . . .

D|-------------------------------|---------------------------------|
A|---------------1-----4-----6---|---------------------------------|
F|---------2---2---2-5---5-7---7-|---------------------------------|
C|---4---4---4-------------------|-8-8-8-7-7-7-2-2-2-2-2-2-2-2-2-2-|
G|-5---5-------------------------|-8-8-8-7-7-7-2-2-2-2-2-2-2-2-2-2-|
C|-------------------------------|-8-8-8-7-7-7-2-2-2-2-2-2-2-2-2-2-|


D|----------------------------------------|
A|----------------------------------------|
F|----------------------------------------|
C|----------------------------------------|
G|-4----0-0-0-0-4----0-0-0-0-4----0-0-0-0-|
C|-3----0-0-0-0-3----0-0-0-0-3----0-0-0-0-|
        . . . .      . . . .      . . . .

D|-------------------------------|---------------------------------|
A|---------------1-----4-----6---|---------------------------------|
F|---------2---2---2-5---5-7---7-|---------------------------------|
C|---4---4---4-------------------|-8-8-8-7-7-7-2-2-2-2-2-2-2-2-2-2-|
G|-5---5-------------------------|-8-8-8-7-7-7-2-2-2-2-2-2-2-2-2-2-|
C|-------------------------------|-8-8-8-7-7-7-2-2-2-2-2-2-2-2-2-2-|


D|----------------------------------------|
A|----------------------------------------|
F|----------------------------------------|
C|----------------------------------------|
G|-4----0-0-0-0-4----0-0-0-0-4----0-0-0-0-|
C|-3----0-0-0-0-3----0-0-0-0-3----0-0-0-0-|
        . . . .      . . . .      . . . .

D|-------------------------------|---------------------------------|
A|---------------1-----4-----6---|---------------------------------|
F|---------2---2---2-5---5-7---7-|---------------------------------|
C|---4---4---4-------------------|-8-8-8-7-7-7-2-2-2-2-2-2-2-2-2-2-|
G|-5---5-------------------------|-8-8-8-7-7-7-2-2-2-2-2-2-2-2-2-2-|
C|-------------------------------|-8-8-8-7-7-7-2-2-2-2-2-2-2-2-2-2-|


D|----------------------------------------|
A|----------------------------------------|
F|----------------------------------------|
C|----------------------------------------|
G|-4----0-0-0-0-4----0-0-0-0-4----0-0-0-0-|
C|-3----0-0-0-0-3----0-0-0-0-3----0-0-0-0-|
        . . . .      . . . .      . . . .

D|-------------------------------|-------------------------------|
A|---------------1-----4-----6---|---------------1-----4-----6---|
F|---------2---2---2-5---5-7---7-|---------2---2---2-5---5-7---7-|
C|---4---4---4-------------------|---4---4---4-------------------|
G|-5---5-------------------------|-5---5-------------------------|
C|-------------------------------|-------------------------------|


[Breakdown B]

D|-----------------------------|-----------------------------|
A|-7-------------7-------------|-7-------------7-------------|
F|-10------------10------------|-10------------10------------|
C|-----------------------------|-----------------------------|
G|-------0-0-0-0-------0-0-0-0-|-------0-0-0-0-------0-0-0-0-|
C|-------0-0-0-0-------0-0-0-0-|-------0-0-0-0-------0-0-0-0-|
         . . . .       . . . .         . . . .       . . . .

D|-----------------------------|-----------------------------|
A|-7-------------7-------------|-7-------------7---------12--|
F|-10------------10------------|-10------------10--------15--|
C|-----------------------------|-----------------------------|
G|-------0-0-0-0-------0-0-0-0-|-------0-0-0-0-------0-0-----|
C|-------0-0-0-0-------0-0-0-0-|-------0-0-0-0-------0-0-----|
         . . . .       . . . .         . . . .       . . 

D|-----------------------------|-----------------------------|
A|-7-------------7-------------|-7-------------7-------------|
F|-10------------10------------|-10------------10------------|
C|-----------------------------|-----------------------------|
G|-------0-0-0-0-------0-0-0-0-|-------0-0-0-0-------0-0-0-0-|
C|-------0-0-0-0-------0-0-0-0-|-------0-0-0-0-------0-0-0-0-|
         . . . .       . . . .         . . . .       . . . .

D|-----------------------------|-----------------------------|
A|-7-------------7-------------|-7-------------7---------12--|
F|-10------------10------------|-10------------10--------15--|
C|-----------------------------|-----------------------------|
G|-------0-0-0-0-------0-0-0-0-|-------0-0-0-0-------0-0-----|
C|-------0-0-0-0-------0-0-0-0-|-------0-0-0-0-------0-0-----|
         . . . .       . . . .         . . . .       . . 

D|-----------------------------|-----------------------------|
A|-7-------------7-------------|-7-------------7-------------|
F|-10------------10------------|-10------------10------------|
C|-----------------------------|-----------------------------|
G|-------0-0-0-0-------0-0-0-0-|-------0-0-0-0-------0-0-0-0-|
C|-------0-0-0-0-------0-0-0-0-|-------0-0-0-0-------0-0-0-0-|
         . . . .       . . . .         . . . .       . . . .

D|-----------------------------|-----------------------------|
A|-7-------------7-------------|-7-------------7-------------|
F|-10------------10------------|-10------------10------------|
C|-----------------------------|-----------------------------|
G|-------0-0-0-0-------0-0-0-0-|-------0-0-0-0-------0-0-----|
C|-------0-0-0-0-------0-0-0-0-|-------0-0-0-0-------0-0-12\-|
         . . . .       . . . .         . . . .       . . 

[Bridge D]

D|-------------------------------------|
A|-------------------------------------|
F|-------------------------------------|
C|-1----2----4-------2----3----5-------|
G|-1----2----4-------2----3----5-------|
C|-1----2----4-------2----3----5-------|


D|-----------------------------------|
A|-----------------------------------|
F|-----------------------------------|
C|-6-6------6-6------6-6------2----2-|
G|-6-6----0-6-6----0-6-6----0-2----2-|
C|-6-6----0-6-6----0-6-6----0-2----2-|


D|-----------------------------------|
A|-----------------------------------|
F|-----------------------------------|
C|-6-6------6-6------6-6------2------|
G|-6-6----0-6-6----0-6-6----0-2------|
C|-6-6----0-6-6----0-6-6----0-2------|


[Chorus Variation]

D|-----------------------------------|
A|-----------------------------------|
F|-----------------------------------|
C|-6-6------6-6------6-6------2----2-|
G|-6-6----0-6-6----0-6-6----0-2----2-|
C|-6-6----0-6-6----0-6-6----0-2----2-|


D|----------------------------------|
A|----------------------------------|
F|----------------------------------|
C|-6-6------6-6------5--4-------2---|
G|-6-6----0-6-6----0-3--2---0---2---|
C|-6-6----0-6-6----0--------0---2---|
                            . 

D|-----------------------------------|
A|-----------------------------------|
F|-----------------------------------|
C|-6-6------6-6------6-6------2----2-|
G|-6-6----0-6-6----0-6-6----0-2----2-|
C|-6-6----0-6-6----0-6-6----0-2----2-|


D|-------------------------------------------------------|
A|-------------------------------------------------------|
F|-------------------------------------------------------|
C|-6-6------6-6------1----2----4-------2----3----5-------|
G|-6-6----0-6-6----0-1----2----4-------2----3----5-------|
C|-6-6----0-6-6----0-1----2----4-------2----3----5-------|


D|-----------------------------------|
A|-----------------------------------|
F|-----------------------------------|
C|-6-6------6-6------6-6------2----2-|
G|-6-6----0-6-6----0-6-6----0-2----2-|
C|-6-6----0-6-6----0-6-6----0-2----2-|


D|----------------------------------|
A|----------------------------------|
F|----------------------------------|
C|-6-6------6-6------5--4-------2---|
G|-6-6----0-6-6----0-3--2---0---2---|
C|-6-6----0-6-6----0--------0---2---|
                            . 

D|-----------------------------------|
A|-----------------------------------|
F|-----------------------------------|
C|-6-6------6-6------6-6------2----2-|
G|-6-6----0-6-6----0-6-6----0-2----2-|
C|-6-6----0-6-6----0-6-6----0-2----2-|


D|----------------------------------------------------------|
A|----------------------------------------------------------|
F|----------------------------------------------------------|
C|-6-6------6-6------1----2----4----------2----3----5-------|
G|-6-6----0-6-6----0-1----2----4----------2----3----5-------|
C|-6-6----0-6-6----0-1----2----4----------2----3----5-------|



(\) Slide Down 
(h) Hammer On 
(p) Pull Off 
(b) Bend 
(r) Release 
(.) Palm Mute  
(*) Pinch Harmonic
   
Другие материалы по этой песне:
  • Аккорды и текст

https://primanota.ru/every-time-i-die/1977-chords.htm

Привет, гитарист!

Тебе подарок от сайта PrimaNota.ru

Забрать подарок
ВАМ ПОДАРКИ ОТ ПРОЕКТА
"ГИТАРНАЯ РЕВОЛЮЦИЯ"