Войти:  Facebook Google Twitter Vk Yandex Mail.ru
PrimaNota.ru - самый крупный в мире бесплатный архив песенных текстов, аккордов, табулатур и нот


Elvis Costello & The Attractions - I Stand Accused - бас-таба, видео

Печатать
Лучшая metal-группа Петербурга

I Stand Accused

  • аккорды и текст

[Verse 1]
G|------------------|------------------7|-----------------7|-------------------|
D|------------------|-----7----------9--|-----7---------9--|---7-10------------|
A|-----7---10---7-10|-8-8---8--10-10----|-8-8---8-10-10----|-8------8-10-8-7---|
E|-8-8---8----8-----|-------------------|------------------|-----------------10|

G|------------------|------------------7|-----------------7|-------------------|
D|------------------|-----7----------9--|-----7---------9--|---7-10-----------6|
A|-----7---10---7-10|-8-8---8--10-10----|-8-8---8-10-10----|-8------8-10-9-10--|
E|-8-8---8----8-----|-------------------|------------------|-------------------|

[Chorus]
G|----------------|--------------------|-----------------|-----------------------|
D|-7-7-----7-7---7|-10-10-9-9-7-7------|-----7---10------|-----------------------|
A|-----7-7-----7--|---------------10-10|-8-8---8----8-7--|----------------------7|
E|----------------|--------------------|----------------8|-10-10-10-10-10-10-10--|

G|-----------------|----------------------|-----------------|--------------------|
D|-----7---10---7--|-------9----12----9---|-----7---10---7--|--------------------|
A|-8-8---8----8---8|-10-10---10----10---10|-8-8---8----8---8|-10-10-8-8-7-7------|
E|-----------------|----------------------|-----------------|---------------10-10|

[Verse 2]
G|------------------|------------------7|-----------------7|-------------------|
D|------------------|-----7----------9--|-----7---------9--|---7-10------------|
A|-----7---10---7-10|-8-8---8--10-10----|-8-8---8-10-10----|-8------8-10-8-7---|
E|-8-8---8----8-----|-------------------|------------------|-----------------10|

G|------------------|------------------7|-----------------7|-------------------|
D|------------------|-----7----------9--|-----7---------9--|---7-10-----------6|
A|-----7---10---7-10|-8-8---8--10-10----|-8-8---8-10-10----|-8------8-10-9-10--|
E|-8-8---8----8-----|-------------------|------------------|-------------------|

[Chorus]
G|----------------|--------------------|-----------------|-----------------------|
D|-7-7-----7-7---7|-10-10-9-9-7-7------|-----7---10---7--|-----------------------|
A|-----7-7-----7--|---------------10-10|-8-8---8----8---8|----------------------7|
E|----------------|--------------------|-----------------|-10-10-10-10-10-10-10--|

G|-----------------|----------------------|-----------------|----------------------| 
D|-----7---10---7--|-------9----12----9---|-----7---10---7--|-------9----12----9---|
A|-8-8---8----8---8|-10-10---10----10---10|-8-8---8----8---8|-10-10---10----10---10|
E|-----------------|----------------------|-----------------|----------------------|

G|-----------------|----------------------|----------------|----------------|
D|-----7---10---7--|-------9----12----9---|----------------|----------------|
A|-8-8---8----8---8|-10-10---10----10---10|-8-8-0-0--------|-----5-5-6-6-7-7|
E|-----------------|----------------------|---------6-6-7-7|-8-8------------|

G|-----------------|----------------------|-----------------|---------------------|----------------| 
D|-----7---10---7--|-------9----12----9---|-----7---10---7--|-------9----12-------|----------------|
A|-8-8---8----8---8|-10-10---10----10---10|-8-8---8----8---8|-10-10---10----10-9-x|----------------|
E|-----------------|----------------------|-----------------|---------------------|-3-3-3-3-3-3-3-3|

[Verse 3]
G|------------------|------------------7|-----------------7|-------------------|
D|------------------|-----7----------9--|-----7---------9--|---7-10------------|
A|-----7---10---7-10|-8-8---8--10-10----|-8-8---8-10-10----|-8------7-10-8-7---|
E|-8-8---8----8-----|-------------------|------------------|-----------------10|

G|------------------|------------------7|-----------------7|-------------------|
D|------------------|-----7----------9--|-----7---------9--|---7-10-----------6|
A|-----7---10---7-10|-8-8---8--10-10----|-8-8---8-10-10----|-8------8-10-9-10--|
E|-8-8---8----8-----|-------------------|------------------|-------------------|

[Chorus]
G|----------------|------------------|----------------|---------------------|
D|-7-7-----7-7----|-7----7/-19-19-19\|----------------|---------------------|
A|-----7-7-----7-7|----7-------------|-8-8-----8-8----|-------9----12----8-7|
E|----------------|------------------|-----8-8-----8-9|-10-10---10----10----|

G|-----------------|----------------------|-----------------|--------------------| 
D|-----7---10---7--|-------9----12----9---|-----7---10---7--|--------------------|
A|-8-8---8----8---8|-10-10---10----10---10|-8-8---8----8---8|-10-10-8-8-7-7------|
E|-----------------|----------------------|-----------------|---------------10-10|

[Instrumental]
G|------------------|------------------7|-----------------7|-------------------|
D|------------------|-----7----------9--|-----7---------9--|---7-10------------|
A|-----7---10---7-10|-8-8---8--10-10----|-8-8---8-10-10----|-8------8-10-8-7---|
E|-8-8---8----8-----|-------------------|------------------|-----------------10|

G|------------------|------------------7|-----------------7|-------------------|
D|------------------|-----7----------9--|-----7---------9--|---7-10-----------6|
A|-----7---10---7-10|-8-8---8--10-10----|-8-8---8-10-10----|-8------8-10-9-10--|
E|-8-8---8----8-----|-------------------|------------------|-------------------|

[Chorus]
G|----------------|-8-8/14-14-14--14\|------------------|-----------------------|
D|-7-7-----7-7----|------------------|-----7---10-10-7--|-----------------------|
A|-----7-7-----7-7|------------------|-8-8---8---------8|----------------------7|
E|----------------|------------------|------------------|-10-10-10-10-10-10-10--|

G|-----------------|----------------------|-----------------|--------------------| 
D|-----7---10---7--|-------9----12----9---|-----7---10------|--------------------|
A|-8-8---8----8---8|-10-10---10----10---10|-8-8---8----8-7-8|-10-10-8-8-7-7------|
E|-----------------|----------------------|-----------------|---------------10-10|

[Outro]
G|--------------------|----------------|--------------------|----------------|
D|-----------10-10----|---------7-7----|-----------10-10----|---------7-7----|
A|-----10-10----------|-----7-7--------|-----10-10----------|-----7-7--------|
E|-8-8-------------8-7|-5-5---------5-7|-8-8-------------8-7|-5-5---------5-7|

G|--------------------|----------------|--------------------|----------------|
D|-----------10-10----|---------7-7----|-----------10-10----|---------7-7----|
A|-----10-10----------|-----7-7--------|-----10-10----------|-----7-7-----5--|
E|-8-8-------------8-7|-5-5---------5-7|-8-8-------------8-7|-5-5-----------7|

G|----------------|----------------|----------------|----------------|
D|----------------|----------------|----------------|----------------|
A|----------------|----------------|-3-3-x---3-3-x--|----------------|
E|-8-8-x-8-8-8-x-7|-5-5-x-5-5-5-x-5|-------3-------3|-5-5-x-0-5-5-x-0|
                                                           (fade out)
G|----------------|----------------|----------------|----------------|
D|----------------|----------------|----------------|----------------|
A|-3-3-3-3-3-3-3-2|---------------2|-3-3-3-3-3-3-3-2|---------------2|
E|----------------|-5-5-5-5-5-5-5--|----------------|-5-5-5-5-5-5-5--|



**************************

| / slide up
| \ slide down
| x dead note

**************************   
Другие материалы по этой песне:
  • Аккорды и текст

https://primanota.ru/elvis-costello-and-attractions/i-stand-accused-chords.htm

Привет, гитарист!

Тебе подарок от сайта PrimaNota.ru

Забрать подарок
ВАМ ПОДАРКИ ОТ ПРОЕКТА
"ГИТАРНАЯ РЕВОЛЮЦИЯ"