Войти:  Facebook Google Twitter Vk Yandex Mail.ru
PrimaNota.ru - самый крупный в мире бесплатный архив песенных текстов, аккордов, табулатур и нот


Elvis Costello & The Attractions - Human Touch - бас-таба, видео

Печатать
Просмотров: 48
Лучшая metal-группа Петербурга

Human Touch

  • аккорды и текст

Bass Start - 00:05
 
[Intro]
G|----|
D|----|
A|-19\|
E|----|

[Verse 1]
G|----------9-----------9-|-------------------------|
D|----6--9------6--6-9----|----------9------------9-|
A|-7----------------------|----6--9------6--6-9-9---|
E|------------------------|-7-----------------------|

G|-------------------------|----------9------------9-|
D|----------9------------9-|----6--9------6--6-9-9---|
A|----6--9------6--6-9-9---|-7-----------------------|
E|-7-----------------------|-------------------------|

G|----------9------------9-|------------------------|--------------|
D|----6--9------6--6-9-9---|----------4--------6--5-|----6--9------|
A|-7-----------------------|----4--4-----6----------|-7---------6-9|
E|-------------------------|-5--------------7-------|---------7----|

G|-------------------------|---------------------------|
D|----6--9---------------7-|----------9------6--9---6-9|
A|-7--------7------4--7----|----6--9----7--7------7----|
E|------------5--5---------|-7-------------------------|

G|----------9--------------|-----------------------------|----------9----------------|
D|----6--9-----------------|----9-----11------12------13\|----6--9--------------9----|
A|-7---------------4--7--9\|-----------------------------|-7---------------6--9---9--|
E|------------5--5---------|-7-----9------10------11-----|------------7--7----------7|

[Verse 2]
G|----------9------------9-|-------------------------|
D|----6--9------6--6-9-9---|----------9------------9-|
A|-7-----------------------|----6--9------6--6-9-9---|
E|-------------------------|-7-----------------------|

G|-------------------------|----------9------------9-|
D|----------9------------9-|----6--9------6--6-9-9---|
A|----6--9------6--6-9-9---|-7-----------------------|
E|-7-----------------------|-------------------------|

G|-----------9------------9-|------------------------|--------------|
D|-----6--9------6--6-9-9---|----------4--------6--5-|----6--9------|
A|-7-7----------------------|----4--4-----6----------|-7---------6-9|
E|--------------------------|-5--------------7-------|---------7----|

G|-------------------------|----------------------------|
D|----6--9---------------7-|-----------9------6--9---6-9|
A|-7--------7------4--7----|-----6--9----7--7------7----|
E|------------5--5---------|-7-7------------------------|

G|----------9--------------|-----------------------------|
D|----6--9-----------------|----9-----11------12------13\|
A|-7---------------4--7--9\|-----------------------------|
E|------------5--5---------|-7-----9------10------11-----|

[Bridge]
G|-6----------------------|------------------------------------------------|
D|----6--------6----------|------------------------------------------------|
A|-------7--4-----6--3----|--------------------3-3---4-4---5-5--4------/15\|
E|----------------------4-|--2-2---5-5---4-4-------------------------------|

[Verse 3]
G|----------9------------9-|--------------------------|
D|----6--9------6--6-9-9---|----------9----------9---9|
A|-7-----------------------|----6--9------6--6-9---9--|
E|-------------------------|-7------------------------|

G|-------------------------|----------9----------------|
D|----------9------------9-|----6--9------0-6-6-9-9---9|
A|----6--9------6--6-9-9---|-7----------------------7--|
E|-7-----------------------|---------------------------|

G|-----------9------------9-|------------------------|--------------|
D|-----6--9------6--6-9-9---|----------4--------6--5-|----6--9---9--|
A|-7-7----------------------|----4--4-----6----------|-7-------9---9|
E|--------------------------|-5--------------7-------|--------------|

G|-------------------------|---------------------------|
D|----6--9---------------7-|----------9------6--9---6-9|
A|-7--------7------4--7----|----6--9----7--7------7----|
E|------------5--5---------|-7-------------------------|

G|----------9---------------|-----------------------------|
D|----6--9------------------|----9-----11------12------13\|
A|-7---------------4--7--12\|-----------------------------|
E|------------5--5----------|-7-----9------10------11-----|

G|----------------------------------|-----------------------------|
D|-----9------11------12--------14--|----9-----11------12------13\|
A|---------------------------------0|-----------------------------|
E|-7-7----9-9-----10------11-11-----|-7-----9------10------11-----|

[Outro]
G|----------9---------x-6----|---------------------------|
D|----6--9----6--6-9------9-6|----------9---------9------|
A|-7-------------------------|----6--9--------6-9---9-6-9|
E|---------------------------|-7------------7------------|
                                       (fade out)
G|--------------------------|----------6---------|
D|----------9------------9-9|----6--9----9-------|
A|----6--9------6--6-9-9----|-7-------------7--7-|
E|-7------------------------|--------------------|
 

***************************

| \ slide down
| x dead note

***************************
Добавлено: 01.06.2018
Другие композиции этого автора:
Другие материалы по этой песне:
  • Аккорды и текст

Страница создана 01.06.2018
https://primanota.ru/elvis-costello-and-attractions/human-touch-chords.htm

Привет, гитарист!

Тебе подарок от сайта PrimaNota.ru

Забрать подарок
ВАМ ПОДАРКИ ОТ ПРОЕКТА
"ГИТАРНАЯ РЕВОЛЮЦИЯ"