Войти:  Facebook Google Twitter Vk Yandex Mail.ru
PrimaNota.ru - самый крупный в мире бесплатный архив песенных текстов, аккордов, табулатур и нот


Elevation Worship - Open Up Your Eyes - бас-таба, видео

Печатать
Просмотров: 148
Лучшая metal-группа Петербурга

Open Up Your Eyes

  • аккорды и текст

--------------------------------------------------------------------------
                                          Artist - Elevation Worship 
                                         ****************************
                                            Song - Open Up Our Eyes   
                                           ************************
                                             Tabbed By - Ayreon77
                                            **********************
--------------------------------------------------------------------------
Tuning = Standard             


NO BASS


-----------------
00:28
VERSE 1
********
Stronger...    Stronger... Us.....    Fail...    Fail....
G|------------|-----------|----------|----------|----------|
D|------------|-----------|----------|----------|----------|
A|-2~~~~~~~---|-----------|----------|----------|-2~~~~~~~-|
E|------------|-4~~~~~~~--|-2~~~~~~~-|-0~~~~~~~-|----------|


-----------------
00:50
CHORUS
*******
  For Your love endures forever  O Your love endures forever 
G|------------------------------|----------------------------|
D|------------------------------|----------------------------|
A|----------------2~~~----------|--------------2~~~----------|
E|---------0~~~------------2~~~-|-------0~~~------------2~~~-|

  Open up our eyes, surround us with your light  Your love endures forever
G|---------------------------------------------|---------------------------|
D|---------------------------------------------|---------------------------|
A|------------2~~~-----------------------------|-------------2~~~----------|
E|-0~~~---------------2~~~----------------4~~~-|-------0~~~-----------2~~~-|


-----------------
01:13
BREAK
******
G|------------|------|--------|------------|------|--------|
D|------------|------|--------|------------|------|--------|
A|-2-2-2--2-2-|-2--2-|-2--2-2-|-2-2-2--2-2-|-2--2-|-2--2-2-|
E|------------|------|--------|------------|------|--------|


-----------------
01:24
VERSE 2
********
Mighty...           Mighty...         Save...  Way...   Way...
G|--------|--------|--------|--------|--------|--------|--------|--------|
D|--------|--------|--------|--------|--------|--------|--------|--------|
A|-2--2-2-|-2--2-2-|--------|--------|--------|--------|-2--2-2-|-2--2-2-|
E|--------|--------|-4--4-4-|-4--4-4-|-2--2-2-|-0--0-0-|--------|--------|


-----------------
00:50
CHORUS
*******
  For Your love endures forever     O Your love endures forever 
G|---------------------------------|-----------------------------|
D|---------------------------------|-----------------------------|
A|-----------------2--2-2----------|---------------2--2-2--------|
E|---------0--0-0-----------2--2-2-|-------0--0-0-----------2~~~-|

  Open up our eyes, surround us with your light  Your love endures forever
G|---------------------------------------------|---------------------------|
D|---------------------------------------------|---------------------------|
A|------------2~~~-----------------------------|-------------2~~~----------|
E|-0~~~---------------2~~~----------------4~~~-|-------0~~~-----------2~~~-|


-----------------
02:10
BRIDGE
*******
  Our God is fighting for us always       Our God is fighting for us all  
G|---------|---------|---------|---------|---------|---------|---------|---------|\
D|---------|---------|---------|---------|---------|---------|---------|---------| \
A|---------|---------|-2-2-2-2-|---------|---------|---------|-2-2-2-2-|---------|  \
E|-4-4-4-4-|-0-0-0-0-|---------|-2-2-2-2-|-4-4-4-4-|-0-0-0-0-|---------|-2-2-2-2-|   \
                                                                                      X
  Our God is fighting for us always       We are not alone, we are not alone          2 
G|---------|---------|---------|---------|---------|---------|---------|---------|   /
D|---------|---------|---------|---------|---------|---------|---------|---------|  /
A|---------|---------|-2-2-2-2-|---------|---------|---------|-2-2-2-2-|---------| /
E|-4-4-4-4-|-0-0-0-0-|---------|-2-2-2-2-|-4-4-4-4-|-0-0-0-0-|---------|-2-2-2-2-|/
                                         
                                          On the last one do this
                                          We are not alone, we are not alone 
                                        G|---------|---------|---------|---|
                                        D|---------|---------|---------|---|
                                        A|---------|---------|-2-2-2-2-|---| 
                                        E|-4-4-4-4-|-0-0-0-0-|---------|-2-|

-----------------
03:05
CHORUS
*******
  For Your love endures forever  O Your love endures forever 
G|------------------------------|----------------------------|
D|------------------------------|----------------------------|
A|----------------2~~~----------|--------------2~~~----------|
E|---------0~~~------------2~~~-|-------0~~~------------2~~~-|

  Open up our eyes, surround us with your light  Your love endures forever
G|---------------------------------------------|---------------------------|
D|---------------------------------------------|---------------------------|
A|------------2~~~-----------------------------|-------------2~~~----------|
E|-0~~~---------------2~~~----------------4~~~-|-------0~~~-----------2~~~-|


-----------------
03:28
BRIDGE
*******
  Our God is fighting for us always       Our God is fighting for us all  
G|---------|---------|---------|---------|---------|---------|---------|---------|
D|---------|---------|---------|---------|---------|---------|---------|---------| 
A|---------|---------|-2-2-2-2-|---------|---------|---------|-2-2-2-2-|---------|  
E|-4-4-4-4-|-0-0-0-0-|---------|-2-2-2-2-|-4-4-4-4-|-0-0-0-0-|---------|-2-2-2-2-|   
                                                                                      
  Our God is fighting for us always       We are not alone, we are not alone           
G|---------|---------|---------|---------|---------|---------|---------|---------|   
D|---------|---------|---------|---------|---------|---------|---------|---------|  
A|---------|---------|-2-2-2-2-|---------|---------|---------|-2-2-2-2-|---------| 
E|-4-4-4-4-|-0-0-0-0-|---------|-2-2-2-2-|-4-4-4-4-|-0-0-0-0-|---------|-2-2-2-2-|

  We are not alone, we are not alone
G|---------|---------|---------|---------|---------|---------|---------|---------|
D|---------|---------|---------|---------|---------|---------|---------|---------|
A|---------|---------|-2-2-2-2-|---------|---------|---------|-2-2-2-2-|---------|
E|-4-4-4-4-|-0-0-0-0-|---------|-2-2-2-2-|-4-4-4-4-|-0-0-0-0-|---------|-2-2-2-2-|

  Yeaaaaaa
G|---------|---------|---------|---------|---------|---------|---------|---------|---|
D|---------|---------|-----1---|---------|---------|---------|---------|---------|---|
A|---------|---------|-2-4---2-|---------|---------|---------|-2-2-2-2-|---------|---|
E|-4-4-4-4-|-0-0-0-0-|---------|-2-2-2-2-|-4-4-4-4-|-0-0-0-0-|---------|-2-2-2-2-|-0-|


ENJOY.........
Добавлено: 23.04.2018
Другие материалы по этой песне:
  • Аккорды и текст

Страница создана 23.04.2018
https://primanota.ru/elevation-worship/open-up-your-eyes-chords.htm

Привет, гитарист!

Тебе подарок от сайта PrimaNota.ru

Забрать подарок
ВАМ ПОДАРКИ ОТ ПРОЕКТА
"ГИТАРНАЯ РЕВОЛЮЦИЯ"