PrimaNota.ru - самый крупный в мире бесплатный архив песенных текстов, аккордов, табулатур и нот


Eleanor Mcevoy - Deliver Me - таба, видео

Регистрация Запомнить меня
Войти через:  Facebook Google Twitter Vk Yandex Mail.ru

Eleanor Mcevoy - Deliver Me - таба, видео

Печатать
Просмотров: 123
Лучшая metal-группа Петербурга
----------------------------------------------------------------------------------
                  DELIVER ME (FROM WHAT YOU DO) - Eleanor McEvoy
----------------------------------------------------------------------------------
This is the tab for the solo of the acoustic version only. The same bass notes are
repeated throughout the acoustic version.

Tuning: eBGDAE

Main Solo...

e|3-------0-------|3---------------|3-------0-------|0---------------|
B|0-------0---3---|0---------------|0-------0---3---|0---------------|
G|----------------|----------------|----------------|----------------|
D|------------0---|------------0---|------------0---|------------0---|
A|--------2-------|--------2-------|--------2-------|--------2-------|
E|0---------------|0---------------|0---------------|0---------------|


e|3-------0-------|3---------------|3-------0-------|0---------------|
B|2-------2---3---|----------------|0-------0---3---|----------------|
G|------------0---|------------0---|----------------|----------------|
D|--------2-------|--------2-------|------------0---|------------0---|
A|0---------------|0---------------|--------2-------|--------2-------|
E|----------------|----------------|0---------------|0---------------|
                                   ___________________________________
                                   | 1                               |
e|2---------------|3---------------|3-------0-------|0---------------|
B|0---------0-----|2---------------|0-------0---3---|0---------------|
G|--------2---2---|--------0-------|----------------|----------------|
D|----------------|------------2---|------------0---|----------0-----| Continues
A|2---------------|0---------------|--------2-------|----X---2---2---| to next
E|----------------|----------------|0---------------|0---X-----------| verse... 


After second solo...
 _____________________________________________________________________
 |2                                                                  |
e|3-------0-------|------------0---0-----0-----0---------------------|0-------||
B|0-------0-------|----------0---3---3-2---2-1---1-------------------|3-------||
G|1-------1-------|--------1-----------------------------------------|1-------||
D|0-------0-------|----------------------------------0-2-2-0---------|0-------||
A|2-------2-------|--------------------------------2---------2-0-----|2-------||
E|0-------0-------|0---------------------------------------------3-0-|0-------||



************************************

| /   slide up
| \   slide down
| h   hammer-on
| p   pull-off
| ~   vibrato
| +   harmonic
| x   Mute note
| b   Bend
| pb  Pre-bend
| br  Bend release
| pbr Pre-bend release
| brb Bend release bend

************************************
Добавлено: 05.05.2014
Другие материалы по этой песне:
  • Аккорды и текст

Страница создана 05.05.2014
https://primanota.ru/eleanor-mcevoy/deliver-me-chords.htm
Привет, Гость.
Предлагаем пройти революционный курс по гитаре.
Подарок от PrimaNota.Ru, забирай!