Войти:  Facebook Google Twitter Vk Yandex Mail.ru
PrimaNota.ru - самый крупный в мире бесплатный архив песенных текстов, аккордов, табулатур и нот


Eden - EDEN (Ireland) - 909 - аккорды

Нотный режим - новая уникальная возможность на нашем сайте!
Тональность: 
0
Масштаб: 
100%
Прокрутка: 
0
Проще!
Аппликатуры
Нотный режим
EDEN (Ireland) - 909
Eden
[ Предположительная тональность: G ]

Use E shape barre chords, verses are fingerpicked. You can listen to the pattern on the original recording,
the main pattern is (6&3),4,5 at varying tempos.

verse chords:
F#m C B
F#m C B#m
F#m C B
F#m Gm C B#m

bridge/outro chords:
B F#m OR tab (below)

chorus chords:
B Gm F#m Gm
B Gm F#m


[Verse 1]
        F#m       C   B
So hold on if you want
                         F#m
I don't wanna play this, no
                 C        B#m
I don't have the patience
N.C.
And last year was a long one
F#m                   C
And these days are reruns
  B                        F#m
A fine time for a breakdown
           Gm                      C
Find words to tear these walls down
                  B#m
And I threw them all away

If I start then I probably won't stop
            F#m                C                B
'Cause the world moves on and the lights stay on
                                            F#m  C
For the next one, and next one, it's an ocean
                 B#m
No, I don't wanna waste forever
       F#m       C     B
But I can if I want to
                                      F#m
There's so much that can change my mind
         Gm              C     B#m
So much of me has changed, how could I ever feel the same?

[Chorus]
        B         Gm
So dive in, to my home
         F#m        Gm
It's all I have, woah
         B             Gm
So drive me, 'till the shore
              F#m
Spoken like a real life savior
N.C.
NASCAR, we're just racing in circles again

[Bridge]
B F#m x2
OR
e|-----------0---------------------------0-------------------9---|  x2
B|---------0------------4--------------------------4-5--5-4------|
G|-------1------------------------4h6-4--------------------------|
D|-----2-----------------------6----------------6----------------|
A|---2---------------------------------------4-------------------|
E|-0------------------------4------------------------------------|

[Verse 2]
B
Bleed out, it's a cold night
   C                       F#m
City views killed the starlight
                                      B
Sleeping at the wheel for the first time
B
It's terrifying when you wake up
B
A few years later it's a new time
C                                F#m
Hard to see how it stands from the inside
Gm           C             B#m
Inside, it's tried if it's tiring
N.C.
You then, leave

[Chorus]
        B         Gm
So dive in, to my home
         F#m        Gm
It's all I have, woah
         B             Gm
So drive me, 'till the shore
              F#m
Spoken like a real life savior
N.C.
NASCAR, we're ju-


B F#m x6
OR
e|-----------0---------------------------0-------------------9---|  x6
B|---------0------------4--------------------------4-5--5-4------|
G|-------1------------------------4h6-4--------------------------|
D|-----2-----------------------6----------------6----------------|
A|---2---------------------------------------4-------------------|
E|-0------------------------4------------------------------------|
(towards the end play natural harmonic on the 12th fret of the high e string instead of playing it open)



************************************

| h  Hammer-on

************************************

Eden - EDEN (Ireland) - 909 - ноты

(включить)
Другие материалы по этой песне:
  • Аккорды, текст

https://primanota.ru/eden/eden-ireland-909-chords.htm

Привет, гитарист!

Тебе подарок от сайта PrimaNota.ru

Забрать подарок
ВАМ ПОДАРКИ ОТ ПРОЕКТА
"ГИТАРНАЯ РЕВОЛЮЦИЯ"