» 
 » 
Я ухожу



Джизус - Я ухожу - аккорды

Чайковский в рок-аранжировке! Очень необычно, послушай!
Тональность: 
0
Масштаб: 
100%
Прокрутка: 
0
Проще!
Аппликатуры
Нотный режим
Я ухожу
Джизус
[ Предположительная тональность: C ]

E ||---------------------------|---------------------------||
B ||---------------------------|---------------------------||
G ||o--------------------------|--------------------------o||
D ||o------2-------------------|--------------------------o||
A ||-0-----------------2-------|--------3-----------2------||
E ||----------0----------------|--1--------0---------------||

----------------------------|----------------------------||---------------|
----------------------------|----------------------------||----------1----|
----------------------------|----------------------------||o------2-------|
--------------------3-------|--------------------2-------||o---2----------|
-----------3----------------|-----------2----------------||-0-------------|
--1-------------------------|--0-------------------------||---------------|

----------------|----------------|---------------|||---------------------------|
----------------|----------------|---------------|||---------------------------|
-----------0----|-----------2----|-----------0--o|||o--------------------------|
--------2-------|--------3-------|--------2-----o|||o------2-------------------|
-----2----------|-----3----------|-----2---------|||-0-----------------2-------|
--0-------------|--1-------------|--0------------|||----------0----------------|

---------------------------|||---------------------------|
---------------------------|||---------------------------|
--------------------------o|||o--------------------------|
--------------------------o|||o------------------3-------|
--------3-----------2------|||----------3----------------|
--1--------0---------------|||-1-------------------------|

----------------------------|----------------------------|
----------------------------|----------------------------|
----------------------------|----------------------------|
--------------------5-------|--------------------7-------|
-----------5----------------|-----------7----------------|
--3-------------------------|--5-------------------------|

---------------------------||----------------------------|
---------------------------||----------------------------|
--------------------------o||----------------------------|
--------------------5-----o||--------------------3-------|
-----------5---------------||-----------3----------------|
--3------------------------||--1-------------------------|

----------------------------|----------------------------|
----------------------------|----------------------------|
----------------------------|----------------------------|
--------------------5-------|--------------------3-------|
-----------5----------------|-----------3----------------|
--3-------------------------|--1-------------------------|

                                    ^
----------------------------|--0----||---------------|----------------|
----------------------------|--0----||----------1----|----------------|
----------------------------|--0----||o------2-------|-----------0----|
--------------------2-------|--2----||o---2----------|--------2-------|
-----------2----------------|--2----||-0-------------|-----2----------|
--0-------------------------|--0----||---------------|--0-------------|

----------------|---------------|||
----------------|---------------|||
-----------2----|-----------0--o|||
--------3-------|--------2-----o|||
-----3----------|-----2---------|||
--1-------------|--0------------|||
[Куплет 1]
Всё так безнадёжно, в моей голове клещи
Во мне десять типов, каждого - нужно лечить
Сотни исписал, но на всё положил
Автор никому неизвестных хитов, скажи:

[Припев]
«Я ухожу, прости меня» (сотни раз извинялся)
«Я ухожу, я так люблю тебя»
«Я ухожу, прости меня» (сотни раз извинялся)
«Я ухожу, я так люблю тебя»

[Куплет 2]
Если захочешь прохлады, для тебя буду ветром
Я сжёг мосты все на преградах, и теперь там пепел (пепел)
Так не хочу копировать кого-то, выпивать твою, как сок
И я так редко настоящий, небо плачет, не беру зонт (я ухожу)


«Я ухожу, прости меня» (сотни раз извинялся)
«Я ухожу, я так люблю тебя»
«Я ухожу, прости меня» (сотни раз извинялся)
«Я ухожу, я так люблю тебя»


Припев:

Fm   Fm         C         Fm
«Я ухожу, прости меня» (сотни раз извинялся)
Fm   Fm         C         Fm
«Я ухожу, я так люблю тебя»
Fm   Fm         C         Fm
«Я ухожу, прости меня» (сотни раз извинялся)
Fm   Fm         C         Fm
«Я ухожу, я так люблю тебя»

Джизус - Я ухожу - ноты

(включить)
https://primanota.ru/dzhizus/ya-uxozhu.htm