Войти:  Facebook Google Twitter Vk Yandex Mail.ru
PrimaNota.ru - самый крупный в мире бесплатный архив песенных текстов, аккордов, табулатур и нот


Dwarves - Reputation - текст песни, бас-таба, видео

Печатать
Просмотров: 135
Лучшая metal-группа Петербурга

Reputation

  • аккорды и текст

[Intro]

G|---------------------------------|
D|---------------------------------|
A|-2-2-2-2-2-2-2-2-2-2-2-2-2-2-2-2-|
E|---------------------------------|


[Main Riff]

G|-----------------------------------------------------------------|
D|-----------------------------------------------------------------|
A|-2-2-2-2-2-2-2-2-2-2-2-2-2-2-2-2---------------------------------|
E|---------------------------------3-3-3-3-3-3-3-3-3-3-3-3-3-3-3-3-|


[Bridge]

("...Reputation...")
G|-----------------------|-----------------------|
D|-----------------------|-----------------------|
A|-----------------------|-----------------------|
E|-2-2-x-x-x-2-2-2---3-3-|-2-2-x-x-x-2-2-2---3-3-|


Very minimalist song, really it just alternates between the B and G notes, you only play 
the bridge twice in the whole song

************************************

| x  Dead note

************************************
Добавлено: 17.10.2017
Другие материалы по этой песне:
  • Аккорды и текст

Страница создана 25.05.2012
https://primanota.ru/dwarves/reputation-chords.htm

Привет, гитарист!

Тебе подарок от сайта PrimaNota.ru

Забрать подарок
ВАМ ПОДАРКИ ОТ ПРОЕКТА
"ГИТАРНАЯ РЕВОЛЮЦИЯ"